ISO-10303-21;
HEADER;
FILE_DESCRIPTION (( 'STEP AP214' ),
    '1' );
FILE_NAME ('76.05.06.0007.step',
    '2021-04-02T17:37:23',
    ( '' ),
    ( '' ),
    'SwSTEP 2.0',
    'SolidWorks 2021',
    '' );
FILE_SCHEMA (( 'AUTOMOTIVE_DESIGN' ));
ENDSEC;

DATA;
#1 = CIRCLE ( 'NONE', #77, 16.50000000000000000 ) ;
#2 = FACE_OUTER_BOUND ( 'NONE', #69, .T. ) ;
#3 = ORIENTED_EDGE ( 'NONE', *, *, #130, .F. ) ;
#4 = EDGE_LOOP ( 'NONE', ( #49 ) ) ;
#5 = DIRECTION ( 'NONE',  ( -0.000000000000000000, -0.000000000000000000, -1.000000000000000000 ) ) ;
#6 = DIRECTION ( 'NONE',  ( 1.000000000000000000, 0.000000000000000000, 0.000000000000000000 ) ) ;
#7 = CARTESIAN_POINT ( 'NONE',  ( 0.000000000000000000, 0.000000000000000000, 1.250000000000000000 ) ) ;
#8 =( NAMED_UNIT ( * ) SI_UNIT ( $, .STERADIAN. ) SOLID_ANGLE_UNIT ( ) );
#9 =( NAMED_UNIT ( * ) SI_UNIT ( $, .STERADIAN. ) SOLID_ANGLE_UNIT ( ) );
#10 = VERTEX_POINT ( 'NONE', #119 ) ;
#11 = PRODUCT_CONTEXT ( 'NONE', #127, 'mechanical' ) ;
#12 = CARTESIAN_POINT ( 'NONE',  ( 0.000000000000000000, 0.000000000000000000, 1.250000000000000000 ) ) ;
#13 = EDGE_LOOP ( 'NONE', ( #17 ) ) ;
#14 = ORIENTED_EDGE ( 'NONE', *, *, #23, .F. ) ;
#15 = PRODUCT ( '76.05.06.0007', '76.05.06.0007', '', ( #11 ) ) ;
#16 = ADVANCED_FACE ( 'NONE', ( #75, #121 ), #68, .T. ) ;
#17 = ORIENTED_EDGE ( 'NONE', *, *, #23, .T. ) ;
#18 = ADVANCED_FACE ( 'NONE', ( #2, #126 ), #65, .T. ) ;
#19 = DIRECTION ( 'NONE',  ( 0.000000000000000000, 0.000000000000000000, 1.000000000000000000 ) ) ;
#20 = VERTEX_POINT ( 'NONE', #61 ) ;
#21 = AXIS2_PLACEMENT_3D ( 'NONE', #99, #71, #98 ) ;
#22 = CARTESIAN_POINT ( 'NONE',  ( 10.50000000000000000, 0.000000000000000000, -1.250000000000000000 ) ) ;
#23 = EDGE_CURVE ( 'NONE', #20, #20, #1, .T. ) ;
#24 = AXIS2_PLACEMENT_3D ( 'NONE', #7, #5, #55 ) ;
#25 = FILL_AREA_STYLE_COLOUR ( '', #104 ) ;
#26 = ORIENTED_EDGE ( 'NONE', *, *, #89, .F. ) ;
#27 = PRODUCT_DEFINITION_SHAPE ( 'NONE', 'NONE',  #40 ) ;
#28 = CLOSED_SHELL ( 'NONE', ( #16, #60, #18, #80 ) ) ;
#29 = CIRCLE ( 'NONE', #50, 16.50000000000000000 ) ;
#30 = COLOUR_RGB ( '',0.7764705882352941346, 0.7568627450980391913, 0.7372549019607843590 ) ;
#31 = PRODUCT_RELATED_PRODUCT_CATEGORY ( 'part', '', ( #15 ) ) ;
#32 = FACE_BOUND ( 'NONE', #86, .T. ) ;
#33 = SURFACE_SIDE_STYLE ('',( #124 ) ) ;
#34 =( LENGTH_UNIT ( ) NAMED_UNIT ( * ) SI_UNIT ( .MILLI., .METRE. ) );
#35 = CARTESIAN_POINT ( 'NONE',  ( 10.50000000000000000, 0.000000000000000000, 1.250000000000000000 ) ) ;
#36 = DIRECTION ( 'NONE',  ( 0.000000000000000000, 0.000000000000000000, 1.000000000000000000 ) ) ;
#37 = FILL_AREA_STYLE ('',( #97 ) ) ;
#38 = MECHANICAL_DESIGN_GEOMETRIC_PRESENTATION_REPRESENTATION (  '', ( #134 ), #105 ) ;
#39 = EDGE_LOOP ( 'NONE', ( #3 ) ) ;
#40 = PRODUCT_DEFINITION ( 'UNKNOWN', '', #100, #90 ) ;
#41 = EDGE_LOOP ( 'NONE', ( #112 ) ) ;
#42 = STYLED_ITEM ( 'NONE', ( #46 ), #76 ) ;
#43 = FILL_AREA_STYLE ('',( #25 ) ) ;
#44 = CARTESIAN_POINT ( 'NONE',  ( 0.000000000000000000, 0.000000000000000000, -1.250000000000000000 ) ) ;
#45 = CARTESIAN_POINT ( 'NONE',  ( 0.000000000000000000, 0.000000000000000000, 1.250000000000000000 ) ) ;
#46 = PRESENTATION_STYLE_ASSIGNMENT (( #64 ) ) ;
#47 = MANIFOLD_SOLID_BREP ( 'Boss-Extrude1', #28 ) ;
#48 = CARTESIAN_POINT ( 'NONE',  ( 0.000000000000000000, 0.000000000000000000, 1.250000000000000000 ) ) ;
#49 = ORIENTED_EDGE ( 'NONE', *, *, #74, .F. ) ;
#50 = AXIS2_PLACEMENT_3D ( 'NONE', #44, #83, #117 ) ;
#51 = DIRECTION ( 'NONE',  ( 1.000000000000000000, 0.000000000000000000, -0.000000000000000000 ) ) ;
#52 = UNCERTAINTY_MEASURE_WITH_UNIT (LENGTH_MEASURE( 1.000000000000000082E-05 ), #34, 'distance_accuracy_value', 'NONE');
#53 = DIRECTION ( 'NONE',  ( 1.000000000000000000, 0.000000000000000000, 0.000000000000000000 ) ) ;
#54 = APPLICATION_CONTEXT ( 'automotive_design' ) ;
#55 = DIRECTION ( 'NONE',  ( -1.000000000000000000, 0.000000000000000000, 0.000000000000000000 ) ) ;
#56 = PRESENTATION_LAYER_ASSIGNMENT (  '', '', ( #42 ) ) ;
#57 = SURFACE_SIDE_STYLE ('',( #58 ) ) ;
#58 = SURFACE_STYLE_FILL_AREA ( #37 ) ;
#59 = EDGE_LOOP ( 'NONE', ( #101 ) ) ;
#60 = ADVANCED_FACE ( 'NONE', ( #95, #32 ), #81, .F. ) ;
#61 = CARTESIAN_POINT ( 'NONE',  ( 16.50000000000000000, 0.000000000000000000, 1.250000000000000000 ) ) ;
#62 =( LENGTH_UNIT ( ) NAMED_UNIT ( * ) SI_UNIT ( .MILLI., .METRE. ) );
#63 = APPLICATION_PROTOCOL_DEFINITION ( 'draft international standard', 'automotive_design', 1998, #127 ) ;
#64 = SURFACE_STYLE_USAGE ( .BOTH. , #57 ) ;
#65 = CYLINDRICAL_SURFACE ( 'NONE', #122, 16.50000000000000000 ) ;
#66 =( NAMED_UNIT ( * ) SI_UNIT ( $, .STERADIAN. ) SOLID_ANGLE_UNIT ( ) );
#67 = EDGE_LOOP ( 'NONE', ( #26 ) ) ;
#68 = PLANE ( 'NONE',  #108 ) ;
#69 = EDGE_LOOP ( 'NONE', ( #14 ) ) ;
#70 = PRESENTATION_STYLE_ASSIGNMENT (( #116 ) ) ;
#71 = DIRECTION ( 'NONE',  ( 0.000000000000000000, 0.000000000000000000, 1.000000000000000000 ) ) ;
#72 = APPLICATION_PROTOCOL_DEFINITION ( 'draft international standard', 'automotive_design', 1998, #54 ) ;
#73 = SHAPE_DEFINITION_REPRESENTATION ( #27, #76 ) ;
#74 = EDGE_CURVE ( 'NONE', #84, #84, #103, .T. ) ;
#75 = FACE_OUTER_BOUND ( 'NONE', #13, .T. ) ;
#76 = ADVANCED_BREP_SHAPE_REPRESENTATION ( '76.05.06.0007', ( #47, #21 ), #109 ) ;
#77 = AXIS2_PLACEMENT_3D ( 'NONE', #12, #36, #125 ) ;
#78 =( GEOMETRIC_REPRESENTATION_CONTEXT ( 3 ) GLOBAL_UNCERTAINTY_ASSIGNED_CONTEXT ( ( #52 ) ) GLOBAL_UNIT_ASSIGNED_CONTEXT ( ( #34, #96, #66 ) ) REPRESENTATION_CONTEXT ( 'NONE', 'WORKASPACE' ) );
#79 = CARTESIAN_POINT ( 'NONE',  ( 0.000000000000000000, 0.000000000000000000, -1.250000000000000000 ) ) ;
#80 = ADVANCED_FACE ( 'NONE', ( #123, #107 ), #93, .F. ) ;
#81 = PLANE ( 'NONE',  #82 ) ;
#82 = AXIS2_PLACEMENT_3D ( 'NONE', #79, #19, #51 ) ;
#83 = DIRECTION ( 'NONE',  ( 0.000000000000000000, 0.000000000000000000, 1.000000000000000000 ) ) ;
#84 = VERTEX_POINT ( 'NONE', #35 ) ;
#85 = DIRECTION ( 'NONE',  ( 0.000000000000000000, 0.000000000000000000, 1.000000000000000000 ) ) ;
#86 = EDGE_LOOP ( 'NONE', ( #113 ) ) ;
#87 = DIRECTION ( 'NONE',  ( -1.000000000000000000, 0.000000000000000000, 0.000000000000000000 ) ) ;
#88 = AXIS2_PLACEMENT_3D ( 'NONE', #92, #133, #53 ) ;
#89 = EDGE_CURVE ( 'NONE', #118, #118, #131, .T. ) ;
#90 = PRODUCT_DEFINITION_CONTEXT ( 'detailed design', #54, 'design' ) ;
#91 = CARTESIAN_POINT ( 'NONE',  ( 0.000000000000000000, 0.000000000000000000, 1.250000000000000000 ) ) ;
#92 = CARTESIAN_POINT ( 'NONE',  ( 0.000000000000000000, 0.000000000000000000, -1.250000000000000000 ) ) ;
#93 = CYLINDRICAL_SURFACE ( 'NONE', #24, 10.50000000000000000 ) ;
#94 = DIRECTION ( 'NONE',  ( 1.000000000000000000, 0.000000000000000000, -0.000000000000000000 ) ) ;
#95 = FACE_OUTER_BOUND ( 'NONE', #39, .T. ) ;
#96 =( NAMED_UNIT ( * ) PLANE_ANGLE_UNIT ( ) SI_UNIT ( $, .RADIAN. ) );
#97 = FILL_AREA_STYLE_COLOUR ( '', #30 ) ;
#98 = DIRECTION ( 'NONE',  ( 1.000000000000000000, 0.000000000000000000, 0.000000000000000000 ) ) ;
#99 = CARTESIAN_POINT ( 'NONE',  ( 0.000000000000000000, 0.000000000000000000, 0.000000000000000000 ) ) ;
#100 = PRODUCT_DEFINITION_FORMATION_WITH_SPECIFIED_SOURCE ( 'ANY', '', #15, .NOT_KNOWN. ) ;
#101 = ORIENTED_EDGE ( 'NONE', *, *, #74, .T. ) ;
#102 = DIRECTION ( 'NONE',  ( -0.000000000000000000, -0.000000000000000000, -1.000000000000000000 ) ) ;
#103 = CIRCLE ( 'NONE', #114, 10.50000000000000000 ) ;
#104 = COLOUR_RGB ( '',0.7764705882352941346, 0.7568627450980391913, 0.7372549019607843590 ) ;
#105 =( GEOMETRIC_REPRESENTATION_CONTEXT ( 3 ) GLOBAL_UNCERTAINTY_ASSIGNED_CONTEXT ( ( #115 ) ) GLOBAL_UNIT_ASSIGNED_CONTEXT ( ( #62, #111, #8 ) ) REPRESENTATION_CONTEXT ( 'NONE', 'WORKASPACE' ) );
#106 = UNCERTAINTY_MEASURE_WITH_UNIT (LENGTH_MEASURE( 1.000000000000000082E-05 ), #120, 'distance_accuracy_value', 'NONE');
#107 = FACE_OUTER_BOUND ( 'NONE', #67, .T. ) ;
#108 = AXIS2_PLACEMENT_3D ( 'NONE', #45, #85, #94 ) ;
#109 =( GEOMETRIC_REPRESENTATION_CONTEXT ( 3 ) GLOBAL_UNCERTAINTY_ASSIGNED_CONTEXT ( ( #106 ) ) GLOBAL_UNIT_ASSIGNED_CONTEXT ( ( #120, #128, #9 ) ) REPRESENTATION_CONTEXT ( 'NONE', 'WORKASPACE' ) );
#110 = PRESENTATION_LAYER_ASSIGNMENT (  '', '', ( #134 ) ) ;
#111 =( NAMED_UNIT ( * ) PLANE_ANGLE_UNIT ( ) SI_UNIT ( $, .RADIAN. ) );
#112 = ORIENTED_EDGE ( 'NONE', *, *, #130, .T. ) ;
#113 = ORIENTED_EDGE ( 'NONE', *, *, #89, .T. ) ;
#114 = AXIS2_PLACEMENT_3D ( 'NONE', #91, #132, #6 ) ;
#115 = UNCERTAINTY_MEASURE_WITH_UNIT (LENGTH_MEASURE( 1.000000000000000082E-05 ), #62, 'distance_accuracy_value', 'NONE');
#116 = SURFACE_STYLE_USAGE ( .BOTH. , #33 ) ;
#117 = DIRECTION ( 'NONE',  ( 1.000000000000000000, 0.000000000000000000, 0.000000000000000000 ) ) ;
#118 = VERTEX_POINT ( 'NONE', #22 ) ;
#119 = CARTESIAN_POINT ( 'NONE',  ( 16.50000000000000000, 0.000000000000000000, -1.250000000000000000 ) ) ;
#120 =( LENGTH_UNIT ( ) NAMED_UNIT ( * ) SI_UNIT ( .MILLI., .METRE. ) );
#121 = FACE_BOUND ( 'NONE', #4, .T. ) ;
#122 = AXIS2_PLACEMENT_3D ( 'NONE', #48, #102, #87 ) ;
#123 = FACE_OUTER_BOUND ( 'NONE', #59, .T. ) ;
#124 = SURFACE_STYLE_FILL_AREA ( #43 ) ;
#125 = DIRECTION ( 'NONE',  ( 1.000000000000000000, 0.000000000000000000, 0.000000000000000000 ) ) ;
#126 = FACE_OUTER_BOUND ( 'NONE', #41, .T. ) ;
#127 = APPLICATION_CONTEXT ( 'automotive_design' ) ;
#128 =( NAMED_UNIT ( * ) PLANE_ANGLE_UNIT ( ) SI_UNIT ( $, .RADIAN. ) );
#129 = MECHANICAL_DESIGN_GEOMETRIC_PRESENTATION_REPRESENTATION (  '', ( #42 ), #78 ) ;
#130 = EDGE_CURVE ( 'NONE', #10, #10, #29, .T. ) ;
#131 = CIRCLE ( 'NONE', #88, 10.50000000000000000 ) ;
#132 = DIRECTION ( 'NONE',  ( 0.000000000000000000, 0.000000000000000000, 1.000000000000000000 ) ) ;
#133 = DIRECTION ( 'NONE',  ( 0.000000000000000000, 0.000000000000000000, 1.000000000000000000 ) ) ;
#134 = STYLED_ITEM ( 'NONE', ( #70 ), #47 ) ;
ENDSEC;
END-ISO-10303-21;
