ISO-10303-21;
HEADER;
FILE_DESCRIPTION (( 'STEP AP214' ),
    '1' );
FILE_NAME ('76.05.06.0005.step',
    '2021-04-02T17:37:21',
    ( '' ),
    ( '' ),
    'SwSTEP 2.0',
    'SolidWorks 2021',
    '' );
FILE_SCHEMA (( 'AUTOMOTIVE_DESIGN' ));
ENDSEC;

DATA;
#1 = EDGE_LOOP ( 'NONE', ( #104 ) ) ;
#2 = PRODUCT_DEFINITION_CONTEXT ( 'detailed design', #53, 'design' ) ;
#3 = ORIENTED_EDGE ( 'NONE', *, *, #13, .F. ) ;
#4 =( GEOMETRIC_REPRESENTATION_CONTEXT ( 3 ) GLOBAL_UNCERTAINTY_ASSIGNED_CONTEXT ( ( #125 ) ) GLOBAL_UNIT_ASSIGNED_CONTEXT ( ( #66, #101, #115 ) ) REPRESENTATION_CONTEXT ( 'NONE', 'WORKASPACE' ) );
#5 = EDGE_LOOP ( 'NONE', ( #80 ) ) ;
#6 =( NAMED_UNIT ( * ) SI_UNIT ( $, .STERADIAN. ) SOLID_ANGLE_UNIT ( ) );
#7 = DIRECTION ( 'NONE',  ( 0.000000000000000000, 0.000000000000000000, 1.000000000000000000 ) ) ;
#8 = FACE_OUTER_BOUND ( 'NONE', #40, .T. ) ;
#9 = APPLICATION_PROTOCOL_DEFINITION ( 'draft international standard', 'automotive_design', 1998, #50 ) ;
#10 = STYLED_ITEM ( 'NONE', ( #74 ), #76 ) ;
#11 = DIRECTION ( 'NONE',  ( 0.000000000000000000, 0.000000000000000000, 1.000000000000000000 ) ) ;
#12 = EDGE_LOOP ( 'NONE', ( #3 ) ) ;
#13 = EDGE_CURVE ( 'NONE', #23, #23, #84, .T. ) ;
#14 = PRODUCT_DEFINITION ( 'UNKNOWN', '', #49, #2 ) ;
#15 = ADVANCED_FACE ( 'NONE', ( #22, #127 ), #30, .T. ) ;
#16 = DIRECTION ( 'NONE',  ( 1.000000000000000000, 0.000000000000000000, -0.000000000000000000 ) ) ;
#17 = DIRECTION ( 'NONE',  ( 0.000000000000000000, 0.000000000000000000, 1.000000000000000000 ) ) ;
#18 = STYLED_ITEM ( 'NONE', ( #25 ), #126 ) ;
#19 = ADVANCED_FACE ( 'NONE', ( #8, #70 ), #61, .F. ) ;
#20 = FILL_AREA_STYLE ('',( #36 ) ) ;
#21 = AXIS2_PLACEMENT_3D ( 'NONE', #51, #94, #16 ) ;
#22 = FACE_OUTER_BOUND ( 'NONE', #12, .T. ) ;
#23 = VERTEX_POINT ( 'NONE', #60 ) ;
#24 = VERTEX_POINT ( 'NONE', #107 ) ;
#25 = PRESENTATION_STYLE_ASSIGNMENT (( #105 ) ) ;
#26 = FACE_OUTER_BOUND ( 'NONE', #5, .T. ) ;
#27 = APPLICATION_PROTOCOL_DEFINITION ( 'draft international standard', 'automotive_design', 1998, #53 ) ;
#28 = CIRCLE ( 'NONE', #91, 6.500000000000000888 ) ;
#29 = ADVANCED_FACE ( 'NONE', ( #63, #111 ), #106, .T. ) ;
#30 = CYLINDRICAL_SURFACE ( 'NONE', #62, 10.00000000000000000 ) ;
#31 = DIRECTION ( 'NONE',  ( 0.000000000000000000, 0.000000000000000000, 1.000000000000000000 ) ) ;
#32 = DIRECTION ( 'NONE',  ( 0.000000000000000000, 0.000000000000000000, 1.000000000000000000 ) ) ;
#33 = EDGE_LOOP ( 'NONE', ( #48 ) ) ;
#34 = CARTESIAN_POINT ( 'NONE',  ( 0.000000000000000000, 0.000000000000000000, -1.000000000000000000 ) ) ;
#35 = CARTESIAN_POINT ( 'NONE',  ( 0.000000000000000000, 0.000000000000000000, 1.000000000000000000 ) ) ;
#36 = FILL_AREA_STYLE_COLOUR ( '', #79 ) ;
#37 = UNCERTAINTY_MEASURE_WITH_UNIT (LENGTH_MEASURE( 1.000000000000000082E-05 ), #89, 'distance_accuracy_value', 'NONE');
#38 = EDGE_LOOP ( 'NONE', ( #93 ) ) ;
#39 = PRESENTATION_LAYER_ASSIGNMENT (  '', '', ( #10 ) ) ;
#40 = EDGE_LOOP ( 'NONE', ( #103 ) ) ;
#41 = VERTEX_POINT ( 'NONE', #69 ) ;
#42 = FILL_AREA_STYLE_COLOUR ( '', #96 ) ;
#43 = CARTESIAN_POINT ( 'NONE',  ( 0.000000000000000000, 0.000000000000000000, -1.000000000000000000 ) ) ;
#44 = VERTEX_POINT ( 'NONE', #45 ) ;
#45 = CARTESIAN_POINT ( 'NONE',  ( 6.500000000000000888, 0.000000000000000000, -1.000000000000000000 ) ) ;
#46 = CARTESIAN_POINT ( 'NONE',  ( 0.000000000000000000, 0.000000000000000000, 0.000000000000000000 ) ) ;
#47 = CIRCLE ( 'NONE', #131, 6.500000000000000888 ) ;
#48 = ORIENTED_EDGE ( 'NONE', *, *, #59, .T. ) ;
#49 = PRODUCT_DEFINITION_FORMATION_WITH_SPECIFIED_SOURCE ( 'ANY', '', #86, .NOT_KNOWN. ) ;
#50 = APPLICATION_CONTEXT ( 'automotive_design' ) ;
#51 = CARTESIAN_POINT ( 'NONE',  ( 0.000000000000000000, 0.000000000000000000, 1.000000000000000000 ) ) ;
#52 = DIRECTION ( 'NONE',  ( 1.000000000000000000, 0.000000000000000000, 0.000000000000000000 ) ) ;
#53 = APPLICATION_CONTEXT ( 'automotive_design' ) ;
#54 = CARTESIAN_POINT ( 'NONE',  ( 0.000000000000000000, 0.000000000000000000, -1.000000000000000000 ) ) ;
#55 = PRODUCT_RELATED_PRODUCT_CATEGORY ( 'part', '', ( #86 ) ) ;
#56 = PRODUCT_DEFINITION_SHAPE ( 'NONE', 'NONE',  #14 ) ;
#57 = SURFACE_SIDE_STYLE ('',( #64 ) ) ;
#58 = ORIENTED_EDGE ( 'NONE', *, *, #71, .T. ) ;
#59 = EDGE_CURVE ( 'NONE', #41, #41, #124, .T. ) ;
#60 = CARTESIAN_POINT ( 'NONE',  ( 10.00000000000000000, 0.000000000000000000, 1.000000000000000000 ) ) ;
#61 = PLANE ( 'NONE',  #77 ) ;
#62 = AXIS2_PLACEMENT_3D ( 'NONE', #67, #117, #108 ) ;
#63 = FACE_OUTER_BOUND ( 'NONE', #1, .T. ) ;
#64 = SURFACE_STYLE_FILL_AREA ( #20 ) ;
#65 = DIRECTION ( 'NONE',  ( -1.000000000000000000, 0.000000000000000000, 0.000000000000000000 ) ) ;
#66 =( LENGTH_UNIT ( ) NAMED_UNIT ( * ) SI_UNIT ( .MILLI., .METRE. ) );
#67 = CARTESIAN_POINT ( 'NONE',  ( 0.000000000000000000, 0.000000000000000000, 1.000000000000000000 ) ) ;
#68 = DIRECTION ( 'NONE',  ( 1.000000000000000000, 0.000000000000000000, 0.000000000000000000 ) ) ;
#69 = CARTESIAN_POINT ( 'NONE',  ( 10.00000000000000000, 0.000000000000000000, -1.000000000000000000 ) ) ;
#70 = FACE_BOUND ( 'NONE', #38, .T. ) ;
#71 = EDGE_CURVE ( 'NONE', #24, #24, #28, .T. ) ;
#72 = AXIS2_PLACEMENT_3D ( 'NONE', #46, #11, #85 ) ;
#73 = DIRECTION ( 'NONE',  ( 1.000000000000000000, 0.000000000000000000, -0.000000000000000000 ) ) ;
#74 = PRESENTATION_STYLE_ASSIGNMENT (( #98 ) ) ;
#75 =( NAMED_UNIT ( * ) SI_UNIT ( $, .STERADIAN. ) SOLID_ANGLE_UNIT ( ) );
#76 = ADVANCED_BREP_SHAPE_REPRESENTATION ( '76.05.06.0005', ( #126, #72 ), #128 ) ;
#77 = AXIS2_PLACEMENT_3D ( 'NONE', #34, #121, #73 ) ;
#78 = CARTESIAN_POINT ( 'NONE',  ( 0.000000000000000000, 0.000000000000000000, 1.000000000000000000 ) ) ;
#79 = COLOUR_RGB ( '',0.7764705882352941346, 0.7568627450980391913, 0.7372549019607843590 ) ;
#80 = ORIENTED_EDGE ( 'NONE', *, *, #129, .F. ) ;
#81 = ORIENTED_EDGE ( 'NONE', *, *, #71, .F. ) ;
#82 =( NAMED_UNIT ( * ) PLANE_ANGLE_UNIT ( ) SI_UNIT ( $, .RADIAN. ) );
#83 = DIRECTION ( 'NONE',  ( 1.000000000000000000, 0.000000000000000000, 0.000000000000000000 ) ) ;
#84 = CIRCLE ( 'NONE', #123, 10.00000000000000000 ) ;
#85 = DIRECTION ( 'NONE',  ( 1.000000000000000000, 0.000000000000000000, 0.000000000000000000 ) ) ;
#86 = PRODUCT ( '76.05.06.0005', '76.05.06.0005', '', ( #87 ) ) ;
#87 = PRODUCT_CONTEXT ( 'NONE', #50, 'mechanical' ) ;
#88 =( NAMED_UNIT ( * ) PLANE_ANGLE_UNIT ( ) SI_UNIT ( $, .RADIAN. ) );
#89 =( LENGTH_UNIT ( ) NAMED_UNIT ( * ) SI_UNIT ( .MILLI., .METRE. ) );
#90 = UNCERTAINTY_MEASURE_WITH_UNIT (LENGTH_MEASURE( 1.000000000000000082E-05 ), #110, 'distance_accuracy_value', 'NONE');
#91 = AXIS2_PLACEMENT_3D ( 'NONE', #113, #7, #83 ) ;
#92 = EDGE_LOOP ( 'NONE', ( #58 ) ) ;
#93 = ORIENTED_EDGE ( 'NONE', *, *, #129, .T. ) ;
#94 = DIRECTION ( 'NONE',  ( 0.000000000000000000, 0.000000000000000000, 1.000000000000000000 ) ) ;
#95 = SURFACE_STYLE_FILL_AREA ( #112 ) ;
#96 = COLOUR_RGB ( '',0.7764705882352941346, 0.7568627450980391913, 0.7372549019607843590 ) ;
#97 = DIRECTION ( 'NONE',  ( 1.000000000000000000, 0.000000000000000000, 0.000000000000000000 ) ) ;
#98 = SURFACE_STYLE_USAGE ( .BOTH. , #57 ) ;
#99 = MECHANICAL_DESIGN_GEOMETRIC_PRESENTATION_REPRESENTATION (  '', ( #18 ), #116 ) ;
#100 = ADVANCED_FACE ( 'NONE', ( #132, #26 ), #119, .F. ) ;
#101 =( NAMED_UNIT ( * ) PLANE_ANGLE_UNIT ( ) SI_UNIT ( $, .RADIAN. ) );
#102 = CLOSED_SHELL ( 'NONE', ( #29, #19, #15, #100 ) ) ;
#103 = ORIENTED_EDGE ( 'NONE', *, *, #59, .F. ) ;
#104 = ORIENTED_EDGE ( 'NONE', *, *, #13, .T. ) ;
#105 = SURFACE_STYLE_USAGE ( .BOTH. , #118 ) ;
#106 = PLANE ( 'NONE',  #21 ) ;
#107 = CARTESIAN_POINT ( 'NONE',  ( 6.500000000000000888, 0.000000000000000000, 1.000000000000000000 ) ) ;
#108 = DIRECTION ( 'NONE',  ( -1.000000000000000000, 0.000000000000000000, 0.000000000000000000 ) ) ;
#109 = PRESENTATION_LAYER_ASSIGNMENT (  '', '', ( #18 ) ) ;
#110 =( LENGTH_UNIT ( ) NAMED_UNIT ( * ) SI_UNIT ( .MILLI., .METRE. ) );
#111 = FACE_BOUND ( 'NONE', #130, .T. ) ;
#112 = FILL_AREA_STYLE ('',( #42 ) ) ;
#113 = CARTESIAN_POINT ( 'NONE',  ( 0.000000000000000000, 0.000000000000000000, 1.000000000000000000 ) ) ;
#114 = AXIS2_PLACEMENT_3D ( 'NONE', #35, #122, #65 ) ;
#115 =( NAMED_UNIT ( * ) SI_UNIT ( $, .STERADIAN. ) SOLID_ANGLE_UNIT ( ) );
#116 =( GEOMETRIC_REPRESENTATION_CONTEXT ( 3 ) GLOBAL_UNCERTAINTY_ASSIGNED_CONTEXT ( ( #90 ) ) GLOBAL_UNIT_ASSIGNED_CONTEXT ( ( #110, #82, #6 ) ) REPRESENTATION_CONTEXT ( 'NONE', 'WORKASPACE' ) );
#117 = DIRECTION ( 'NONE',  ( -0.000000000000000000, -0.000000000000000000, -1.000000000000000000 ) ) ;
#118 = SURFACE_SIDE_STYLE ('',( #95 ) ) ;
#119 = CYLINDRICAL_SURFACE ( 'NONE', #114, 6.500000000000000888 ) ;
#120 = MECHANICAL_DESIGN_GEOMETRIC_PRESENTATION_REPRESENTATION (  '', ( #10 ), #4 ) ;
#121 = DIRECTION ( 'NONE',  ( 0.000000000000000000, 0.000000000000000000, 1.000000000000000000 ) ) ;
#122 = DIRECTION ( 'NONE',  ( -0.000000000000000000, -0.000000000000000000, -1.000000000000000000 ) ) ;
#123 = AXIS2_PLACEMENT_3D ( 'NONE', #78, #31, #68 ) ;
#124 = CIRCLE ( 'NONE', #134, 10.00000000000000000 ) ;
#125 = UNCERTAINTY_MEASURE_WITH_UNIT (LENGTH_MEASURE( 1.000000000000000082E-05 ), #66, 'distance_accuracy_value', 'NONE');
#126 = MANIFOLD_SOLID_BREP ( 'Boss-Extrude1', #102 ) ;
#127 = FACE_OUTER_BOUND ( 'NONE', #33, .T. ) ;
#128 =( GEOMETRIC_REPRESENTATION_CONTEXT ( 3 ) GLOBAL_UNCERTAINTY_ASSIGNED_CONTEXT ( ( #37 ) ) GLOBAL_UNIT_ASSIGNED_CONTEXT ( ( #89, #88, #75 ) ) REPRESENTATION_CONTEXT ( 'NONE', 'WORKASPACE' ) );
#129 = EDGE_CURVE ( 'NONE', #44, #44, #47, .T. ) ;
#130 = EDGE_LOOP ( 'NONE', ( #81 ) ) ;
#131 = AXIS2_PLACEMENT_3D ( 'NONE', #43, #32, #52 ) ;
#132 = FACE_OUTER_BOUND ( 'NONE', #92, .T. ) ;
#133 = SHAPE_DEFINITION_REPRESENTATION ( #56, #76 ) ;
#134 = AXIS2_PLACEMENT_3D ( 'NONE', #54, #17, #97 ) ;
ENDSEC;
END-ISO-10303-21;
