ISO-10303-21;
HEADER;
FILE_DESCRIPTION (( 'STEP AP214' ),
    '1' );
FILE_NAME ('76.05.06.0004.step',
    '2021-04-02T17:37:19',
    ( '' ),
    ( '' ),
    'SwSTEP 2.0',
    'SolidWorks 2021',
    '' );
FILE_SCHEMA (( 'AUTOMOTIVE_DESIGN' ));
ENDSEC;

DATA;
#1 = ADVANCED_FACE ( 'NONE', ( #119, #52 ), #69, .T. ) ;
#2 = PRESENTATION_LAYER_ASSIGNMENT (  '', '', ( #35 ) ) ;
#3 = APPLICATION_CONTEXT ( 'automotive_design' ) ;
#4 = CARTESIAN_POINT ( 'NONE',  ( 5.250000000000000000, 0.000000000000000000, -0.8000000000000000444 ) ) ;
#5 = APPLICATION_PROTOCOL_DEFINITION ( 'draft international standard', 'automotive_design', 1998, #43 ) ;
#6 =( NAMED_UNIT ( * ) SI_UNIT ( $, .STERADIAN. ) SOLID_ANGLE_UNIT ( ) );
#7 = ORIENTED_EDGE ( 'NONE', *, *, #124, .T. ) ;
#8 = COLOUR_RGB ( '',0.7764705882352941346, 0.7568627450980391913, 0.7372549019607843590 ) ;
#9 = AXIS2_PLACEMENT_3D ( 'NONE', #30, #83, #128 ) ;
#10 = ORIENTED_EDGE ( 'NONE', *, *, #124, .F. ) ;
#11 = UNCERTAINTY_MEASURE_WITH_UNIT (LENGTH_MEASURE( 1.000000000000000082E-05 ), #93, 'distance_accuracy_value', 'NONE');
#12 = SURFACE_SIDE_STYLE ('',( #75 ) ) ;
#13 =( LENGTH_UNIT ( ) NAMED_UNIT ( * ) SI_UNIT ( .MILLI., .METRE. ) );
#14 = ADVANCED_FACE ( 'NONE', ( #78, #109 ), #91, .F. ) ;
#15 = FACE_OUTER_BOUND ( 'NONE', #70, .T. ) ;
#16 = PRODUCT_DEFINITION_SHAPE ( 'NONE', 'NONE',  #76 ) ;
#17 = PRESENTATION_LAYER_ASSIGNMENT (  '', '', ( #85 ) ) ;
#18 = ORIENTED_EDGE ( 'NONE', *, *, #57, .F. ) ;
#19 = EDGE_LOOP ( 'NONE', ( #29 ) ) ;
#20 = MECHANICAL_DESIGN_GEOMETRIC_PRESENTATION_REPRESENTATION (  '', ( #85 ), #65 ) ;
#21 = FILL_AREA_STYLE ('',( #121 ) ) ;
#22 = DIRECTION ( 'NONE',  ( 0.000000000000000000, 0.000000000000000000, 1.000000000000000000 ) ) ;
#23 = MECHANICAL_DESIGN_GEOMETRIC_PRESENTATION_REPRESENTATION (  '', ( #35 ), #122 ) ;
#24 = DIRECTION ( 'NONE',  ( 1.000000000000000000, 0.000000000000000000, 0.000000000000000000 ) ) ;
#25 =( NAMED_UNIT ( * ) PLANE_ANGLE_UNIT ( ) SI_UNIT ( $, .RADIAN. ) );
#26 = VERTEX_POINT ( 'NONE', #4 ) ;
#27 = PRODUCT_DEFINITION_FORMATION_WITH_SPECIFIED_SOURCE ( 'ANY', '', #58, .NOT_KNOWN. ) ;
#28 = CARTESIAN_POINT ( 'NONE',  ( 9.000000000000000000, 0.000000000000000000, -0.8000000000000000444 ) ) ;
#29 = ORIENTED_EDGE ( 'NONE', *, *, #72, .F. ) ;
#30 = CARTESIAN_POINT ( 'NONE',  ( 0.000000000000000000, 0.000000000000000000, 0.8000000000000000444 ) ) ;
#31 = CLOSED_SHELL ( 'NONE', ( #68, #45, #1, #14 ) ) ;
#32 = CARTESIAN_POINT ( 'NONE',  ( 9.000000000000000000, 0.000000000000000000, 0.8000000000000000444 ) ) ;
#33 = AXIS2_PLACEMENT_3D ( 'NONE', #71, #102, #133 ) ;
#34 = FACE_BOUND ( 'NONE', #19, .T. ) ;
#35 = STYLED_ITEM ( 'NONE', ( #39 ), #82 ) ;
#36 = CARTESIAN_POINT ( 'NONE',  ( 0.000000000000000000, 0.000000000000000000, -0.8000000000000000444 ) ) ;
#37 = DIRECTION ( 'NONE',  ( 1.000000000000000000, 0.000000000000000000, 0.000000000000000000 ) ) ;
#38 =( NAMED_UNIT ( * ) PLANE_ANGLE_UNIT ( ) SI_UNIT ( $, .RADIAN. ) );
#39 = PRESENTATION_STYLE_ASSIGNMENT (( #134 ) ) ;
#40 = PRODUCT_DEFINITION_CONTEXT ( 'detailed design', #3, 'design' ) ;
#41 = PRESENTATION_STYLE_ASSIGNMENT (( #86 ) ) ;
#42 = AXIS2_PLACEMENT_3D ( 'NONE', #118, #50, #96 ) ;
#43 = APPLICATION_CONTEXT ( 'automotive_design' ) ;
#44 = APPLICATION_PROTOCOL_DEFINITION ( 'draft international standard', 'automotive_design', 1998, #3 ) ;
#45 = ADVANCED_FACE ( 'NONE', ( #15, #49 ), #132, .F. ) ;
#46 = ORIENTED_EDGE ( 'NONE', *, *, #99, .F. ) ;
#47 = DIRECTION ( 'NONE',  ( 0.000000000000000000, 0.000000000000000000, 1.000000000000000000 ) ) ;
#48 = ORIENTED_EDGE ( 'NONE', *, *, #72, .T. ) ;
#49 = FACE_BOUND ( 'NONE', #111, .T. ) ;
#50 = DIRECTION ( 'NONE',  ( 0.000000000000000000, 0.000000000000000000, 1.000000000000000000 ) ) ;
#51 = CIRCLE ( 'NONE', #131, 5.250000000000000000 ) ;
#52 = FACE_OUTER_BOUND ( 'NONE', #90, .T. ) ;
#53 = DIRECTION ( 'NONE',  ( 1.000000000000000000, 0.000000000000000000, 0.000000000000000000 ) ) ;
#54 = DIRECTION ( 'NONE',  ( 0.000000000000000000, 0.000000000000000000, 1.000000000000000000 ) ) ;
#55 = AXIS2_PLACEMENT_3D ( 'NONE', #84, #115, #108 ) ;
#56 = CARTESIAN_POINT ( 'NONE',  ( 0.000000000000000000, 0.000000000000000000, 0.000000000000000000 ) ) ;
#57 = EDGE_CURVE ( 'NONE', #66, #66, #77, .T. ) ;
#58 = PRODUCT ( '76.05.06.0004', '76.05.06.0004', '', ( #60 ) ) ;
#59 = SHAPE_DEFINITION_REPRESENTATION ( #16, #98 ) ;
#60 = PRODUCT_CONTEXT ( 'NONE', #43, 'mechanical' ) ;
#61 = CARTESIAN_POINT ( 'NONE',  ( 0.000000000000000000, 0.000000000000000000, -0.8000000000000000444 ) ) ;
#62 = PLANE ( 'NONE',  #42 ) ;
#63 = SURFACE_SIDE_STYLE ('',( #113 ) ) ;
#64 = PRODUCT_RELATED_PRODUCT_CATEGORY ( 'part', '', ( #58 ) ) ;
#65 =( GEOMETRIC_REPRESENTATION_CONTEXT ( 3 ) GLOBAL_UNCERTAINTY_ASSIGNED_CONTEXT ( ( #95 ) ) GLOBAL_UNIT_ASSIGNED_CONTEXT ( ( #125, #114, #126 ) ) REPRESENTATION_CONTEXT ( 'NONE', 'WORKASPACE' ) );
#66 = VERTEX_POINT ( 'NONE', #28 ) ;
#67 = CARTESIAN_POINT ( 'NONE',  ( 5.250000000000000000, 0.000000000000000000, 0.8000000000000000444 ) ) ;
#68 = ADVANCED_FACE ( 'NONE', ( #129, #34 ), #62, .T. ) ;
#69 = CYLINDRICAL_SURFACE ( 'NONE', #9, 9.000000000000000000 ) ;
#70 = EDGE_LOOP ( 'NONE', ( #18 ) ) ;
#71 = CARTESIAN_POINT ( 'NONE',  ( 0.000000000000000000, 0.000000000000000000, 0.8000000000000000444 ) ) ;
#72 = EDGE_CURVE ( 'NONE', #127, #127, #101, .T. ) ;
#73 = EDGE_LOOP ( 'NONE', ( #48 ) ) ;
#74 = DIRECTION ( 'NONE',  ( 0.000000000000000000, 0.000000000000000000, 1.000000000000000000 ) ) ;
#75 = SURFACE_STYLE_FILL_AREA ( #107 ) ;
#76 = PRODUCT_DEFINITION ( 'UNKNOWN', '', #27, #40 ) ;
#77 = CIRCLE ( 'NONE', #81, 9.000000000000000000 ) ;
#78 = FACE_OUTER_BOUND ( 'NONE', #73, .T. ) ;
#79 = ORIENTED_EDGE ( 'NONE', *, *, #57, .T. ) ;
#80 = EDGE_LOOP ( 'NONE', ( #46 ) ) ;
#81 = AXIS2_PLACEMENT_3D ( 'NONE', #36, #120, #37 ) ;
#82 = MANIFOLD_SOLID_BREP ( 'Boss-Extrude1', #31 ) ;
#83 = DIRECTION ( 'NONE',  ( -0.000000000000000000, -0.000000000000000000, -1.000000000000000000 ) ) ;
#84 = CARTESIAN_POINT ( 'NONE',  ( 0.000000000000000000, 0.000000000000000000, 0.8000000000000000444 ) ) ;
#85 = STYLED_ITEM ( 'NONE', ( #41 ), #98 ) ;
#86 = SURFACE_STYLE_USAGE ( .BOTH. , #12 ) ;
#87 = DIRECTION ( 'NONE',  ( 1.000000000000000000, 0.000000000000000000, 0.000000000000000000 ) ) ;
#88 = FILL_AREA_STYLE_COLOUR ( '', #8 ) ;
#89 = EDGE_LOOP ( 'NONE', ( #7 ) ) ;
#90 = EDGE_LOOP ( 'NONE', ( #79 ) ) ;
#91 = CYLINDRICAL_SURFACE ( 'NONE', #33, 5.250000000000000000 ) ;
#92 = UNCERTAINTY_MEASURE_WITH_UNIT (LENGTH_MEASURE( 1.000000000000000082E-05 ), #13, 'distance_accuracy_value', 'NONE');
#93 =( LENGTH_UNIT ( ) NAMED_UNIT ( * ) SI_UNIT ( .MILLI., .METRE. ) );
#94 = CARTESIAN_POINT ( 'NONE',  ( 0.000000000000000000, 0.000000000000000000, -0.8000000000000000444 ) ) ;
#95 = UNCERTAINTY_MEASURE_WITH_UNIT (LENGTH_MEASURE( 1.000000000000000082E-05 ), #125, 'distance_accuracy_value', 'NONE');
#96 = DIRECTION ( 'NONE',  ( 1.000000000000000000, 0.000000000000000000, -0.000000000000000000 ) ) ;
#97 =( NAMED_UNIT ( * ) SI_UNIT ( $, .STERADIAN. ) SOLID_ANGLE_UNIT ( ) );
#98 = ADVANCED_BREP_SHAPE_REPRESENTATION ( '76.05.06.0004', ( #82, #123 ), #103 ) ;
#99 = EDGE_CURVE ( 'NONE', #26, #26, #51, .T. ) ;
#100 = AXIS2_PLACEMENT_3D ( 'NONE', #61, #47, #117 ) ;
#101 = CIRCLE ( 'NONE', #105, 5.250000000000000000 ) ;
#102 = DIRECTION ( 'NONE',  ( -0.000000000000000000, -0.000000000000000000, -1.000000000000000000 ) ) ;
#103 =( GEOMETRIC_REPRESENTATION_CONTEXT ( 3 ) GLOBAL_UNCERTAINTY_ASSIGNED_CONTEXT ( ( #92 ) ) GLOBAL_UNIT_ASSIGNED_CONTEXT ( ( #13, #25, #6 ) ) REPRESENTATION_CONTEXT ( 'NONE', 'WORKASPACE' ) );
#104 = CARTESIAN_POINT ( 'NONE',  ( 0.000000000000000000, 0.000000000000000000, 0.8000000000000000444 ) ) ;
#105 = AXIS2_PLACEMENT_3D ( 'NONE', #104, #54, #53 ) ;
#106 = CIRCLE ( 'NONE', #55, 9.000000000000000000 ) ;
#107 = FILL_AREA_STYLE ('',( #88 ) ) ;
#108 = DIRECTION ( 'NONE',  ( 1.000000000000000000, 0.000000000000000000, 0.000000000000000000 ) ) ;
#109 = FACE_OUTER_BOUND ( 'NONE', #80, .T. ) ;
#110 = COLOUR_RGB ( '',0.7764705882352941346, 0.7568627450980391913, 0.7372549019607843590 ) ;
#111 = EDGE_LOOP ( 'NONE', ( #130 ) ) ;
#112 = EDGE_LOOP ( 'NONE', ( #10 ) ) ;
#113 = SURFACE_STYLE_FILL_AREA ( #21 ) ;
#114 =( NAMED_UNIT ( * ) PLANE_ANGLE_UNIT ( ) SI_UNIT ( $, .RADIAN. ) );
#115 = DIRECTION ( 'NONE',  ( 0.000000000000000000, 0.000000000000000000, 1.000000000000000000 ) ) ;
#116 = VERTEX_POINT ( 'NONE', #32 ) ;
#117 = DIRECTION ( 'NONE',  ( 1.000000000000000000, 0.000000000000000000, -0.000000000000000000 ) ) ;
#118 = CARTESIAN_POINT ( 'NONE',  ( 0.000000000000000000, 0.000000000000000000, 0.8000000000000000444 ) ) ;
#119 = FACE_OUTER_BOUND ( 'NONE', #112, .T. ) ;
#120 = DIRECTION ( 'NONE',  ( 0.000000000000000000, 0.000000000000000000, 1.000000000000000000 ) ) ;
#121 = FILL_AREA_STYLE_COLOUR ( '', #110 ) ;
#122 =( GEOMETRIC_REPRESENTATION_CONTEXT ( 3 ) GLOBAL_UNCERTAINTY_ASSIGNED_CONTEXT ( ( #11 ) ) GLOBAL_UNIT_ASSIGNED_CONTEXT ( ( #93, #38, #97 ) ) REPRESENTATION_CONTEXT ( 'NONE', 'WORKASPACE' ) );
#123 = AXIS2_PLACEMENT_3D ( 'NONE', #56, #74, #87 ) ;
#124 = EDGE_CURVE ( 'NONE', #116, #116, #106, .T. ) ;
#125 =( LENGTH_UNIT ( ) NAMED_UNIT ( * ) SI_UNIT ( .MILLI., .METRE. ) );
#126 =( NAMED_UNIT ( * ) SI_UNIT ( $, .STERADIAN. ) SOLID_ANGLE_UNIT ( ) );
#127 = VERTEX_POINT ( 'NONE', #67 ) ;
#128 = DIRECTION ( 'NONE',  ( -1.000000000000000000, 0.000000000000000000, 0.000000000000000000 ) ) ;
#129 = FACE_OUTER_BOUND ( 'NONE', #89, .T. ) ;
#130 = ORIENTED_EDGE ( 'NONE', *, *, #99, .T. ) ;
#131 = AXIS2_PLACEMENT_3D ( 'NONE', #94, #22, #24 ) ;
#132 = PLANE ( 'NONE',  #100 ) ;
#133 = DIRECTION ( 'NONE',  ( -1.000000000000000000, 0.000000000000000000, 0.000000000000000000 ) ) ;
#134 = SURFACE_STYLE_USAGE ( .BOTH. , #63 ) ;
ENDSEC;
END-ISO-10303-21;
