ISO-10303-21;
HEADER;
FILE_DESCRIPTION (( 'STEP AP214' ),
    '1' );
FILE_NAME ('76.05.06.0002.step',
    '2021-04-02T17:37:17',
    ( '' ),
    ( '' ),
    'SwSTEP 2.0',
    'SolidWorks 2021',
    '' );
FILE_SCHEMA (( 'AUTOMOTIVE_DESIGN' ));
ENDSEC;

DATA;
#1 = EDGE_CURVE ( 'NONE', #91, #91, #27, .T. ) ;
#2 = CARTESIAN_POINT ( 'NONE',  ( 0.000000000000000000, 0.000000000000000000, 0.8000000000000000444 ) ) ;
#3 = CARTESIAN_POINT ( 'NONE',  ( 0.000000000000000000, 0.000000000000000000, -0.8000000000000000444 ) ) ;
#4 = CARTESIAN_POINT ( 'NONE',  ( 0.000000000000000000, 0.000000000000000000, 0.8000000000000000444 ) ) ;
#5 = ORIENTED_EDGE ( 'NONE', *, *, #1, .F. ) ;
#6 = FILL_AREA_STYLE_COLOUR ( '', #16 ) ;
#7 = COLOUR_RGB ( '',0.7764705882352941346, 0.7568627450980391913, 0.7372549019607843590 ) ;
#8 = PRESENTATION_LAYER_ASSIGNMENT (  '', '', ( #34 ) ) ;
#9 = FACE_OUTER_BOUND ( 'NONE', #109, .T. ) ;
#10 =( GEOMETRIC_REPRESENTATION_CONTEXT ( 3 ) GLOBAL_UNCERTAINTY_ASSIGNED_CONTEXT ( ( #48 ) ) GLOBAL_UNIT_ASSIGNED_CONTEXT ( ( #79, #12, #42 ) ) REPRESENTATION_CONTEXT ( 'NONE', 'WORKASPACE' ) );
#11 = CIRCLE ( 'NONE', #85, 3.200000000000000178 ) ;
#12 =( NAMED_UNIT ( * ) PLANE_ANGLE_UNIT ( ) SI_UNIT ( $, .RADIAN. ) );
#13 = CYLINDRICAL_SURFACE ( 'NONE', #93, 5.500000000000000000 ) ;
#14 = DIRECTION ( 'NONE',  ( 0.000000000000000000, 0.000000000000000000, 1.000000000000000000 ) ) ;
#15 = EDGE_LOOP ( 'NONE', ( #83 ) ) ;
#16 = COLOUR_RGB ( '',0.7764705882352941346, 0.7568627450980391913, 0.7372549019607843590 ) ;
#17 = DIRECTION ( 'NONE',  ( 1.000000000000000000, 0.000000000000000000, 0.000000000000000000 ) ) ;
#18 = PRODUCT_RELATED_PRODUCT_CATEGORY ( 'part', '', ( #29 ) ) ;
#19 =( NAMED_UNIT ( * ) SI_UNIT ( $, .STERADIAN. ) SOLID_ANGLE_UNIT ( ) );
#20 = CIRCLE ( 'NONE', #73, 5.500000000000000000 ) ;
#21 = FILL_AREA_STYLE_COLOUR ( '', #7 ) ;
#22 = DIRECTION ( 'NONE',  ( 1.000000000000000000, 0.000000000000000000, 0.000000000000000000 ) ) ;
#23 = VERTEX_POINT ( 'NONE', #54 ) ;
#24 = EDGE_LOOP ( 'NONE', ( #5 ) ) ;
#25 = CARTESIAN_POINT ( 'NONE',  ( 0.000000000000000000, 0.000000000000000000, -0.8000000000000000444 ) ) ;
#26 = DIRECTION ( 'NONE',  ( 1.000000000000000000, 0.000000000000000000, 0.000000000000000000 ) ) ;
#27 = CIRCLE ( 'NONE', #76, 3.200000000000000178 ) ;
#28 = FACE_BOUND ( 'NONE', #105, .T. ) ;
#29 = PRODUCT ( '76.05.06.0002', '76.05.06.0002', '', ( #98 ) ) ;
#30 = EDGE_CURVE ( 'NONE', #129, #129, #11, .T. ) ;
#31 = SHAPE_DEFINITION_REPRESENTATION ( #63, #88 ) ;
#32 =( GEOMETRIC_REPRESENTATION_CONTEXT ( 3 ) GLOBAL_UNCERTAINTY_ASSIGNED_CONTEXT ( ( #77 ) ) GLOBAL_UNIT_ASSIGNED_CONTEXT ( ( #122, #123, #19 ) ) REPRESENTATION_CONTEXT ( 'NONE', 'WORKASPACE' ) );
#33 = UNCERTAINTY_MEASURE_WITH_UNIT (LENGTH_MEASURE( 1.000000000000000082E-05 ), #95, 'distance_accuracy_value', 'NONE');
#34 = STYLED_ITEM ( 'NONE', ( #46 ), #88 ) ;
#35 = FACE_OUTER_BOUND ( 'NONE', #15, .T. ) ;
#36 = EDGE_LOOP ( 'NONE', ( #74 ) ) ;
#37 = MECHANICAL_DESIGN_GEOMETRIC_PRESENTATION_REPRESENTATION (  '', ( #126 ), #10 ) ;
#38 = PLANE ( 'NONE',  #75 ) ;
#39 = PRODUCT_DEFINITION ( 'UNKNOWN', '', #45, #89 ) ;
#40 = CARTESIAN_POINT ( 'NONE',  ( 3.200000000000000178, 0.000000000000000000, 0.8000000000000000444 ) ) ;
#41 = ORIENTED_EDGE ( 'NONE', *, *, #116, .F. ) ;
#42 =( NAMED_UNIT ( * ) SI_UNIT ( $, .STERADIAN. ) SOLID_ANGLE_UNIT ( ) );
#43 = EDGE_LOOP ( 'NONE', ( #80 ) ) ;
#44 = CARTESIAN_POINT ( 'NONE',  ( 0.000000000000000000, 0.000000000000000000, 0.8000000000000000444 ) ) ;
#45 = PRODUCT_DEFINITION_FORMATION_WITH_SPECIFIED_SOURCE ( 'ANY', '', #29, .NOT_KNOWN. ) ;
#46 = PRESENTATION_STYLE_ASSIGNMENT (( #87 ) ) ;
#47 = DIRECTION ( 'NONE',  ( 0.000000000000000000, 0.000000000000000000, 1.000000000000000000 ) ) ;
#48 = UNCERTAINTY_MEASURE_WITH_UNIT (LENGTH_MEASURE( 1.000000000000000082E-05 ), #79, 'distance_accuracy_value', 'NONE');
#49 = EDGE_CURVE ( 'NONE', #82, #82, #20, .T. ) ;
#50 = PRESENTATION_STYLE_ASSIGNMENT (( #104 ) ) ;
#51 = CARTESIAN_POINT ( 'NONE',  ( 0.000000000000000000, 0.000000000000000000, 0.8000000000000000444 ) ) ;
#52 = FILL_AREA_STYLE ('',( #21 ) ) ;
#53 = AXIS2_PLACEMENT_3D ( 'NONE', #51, #101, #100 ) ;
#54 = CARTESIAN_POINT ( 'NONE',  ( 5.500000000000000000, 0.000000000000000000, -0.8000000000000000444 ) ) ;
#55 = CLOSED_SHELL ( 'NONE', ( #99, #59, #94, #111 ) ) ;
#56 = SURFACE_STYLE_FILL_AREA ( #68 ) ;
#57 = DIRECTION ( 'NONE',  ( 0.000000000000000000, 0.000000000000000000, 1.000000000000000000 ) ) ;
#58 = APPLICATION_CONTEXT ( 'automotive_design' ) ;
#59 = ADVANCED_FACE ( 'NONE', ( #9, #28 ), #38, .F. ) ;
#60 = FACE_OUTER_BOUND ( 'NONE', #36, .T. ) ;
#61 = PLANE ( 'NONE',  #125 ) ;
#62 = FACE_OUTER_BOUND ( 'NONE', #24, .T. ) ;
#63 = PRODUCT_DEFINITION_SHAPE ( 'NONE', 'NONE',  #39 ) ;
#64 = SURFACE_SIDE_STYLE ('',( #112 ) ) ;
#65 = ORIENTED_EDGE ( 'NONE', *, *, #49, .F. ) ;
#66 = DIRECTION ( 'NONE',  ( 1.000000000000000000, 0.000000000000000000, -0.000000000000000000 ) ) ;
#67 = DIRECTION ( 'NONE',  ( 1.000000000000000000, 0.000000000000000000, 0.000000000000000000 ) ) ;
#68 = FILL_AREA_STYLE ('',( #6 ) ) ;
#69 =( NAMED_UNIT ( * ) PLANE_ANGLE_UNIT ( ) SI_UNIT ( $, .RADIAN. ) );
#70 = AXIS2_PLACEMENT_3D ( 'NONE', #108, #57, #26 ) ;
#71 = CIRCLE ( 'NONE', #86, 5.500000000000000000 ) ;
#72 = CARTESIAN_POINT ( 'NONE',  ( 0.000000000000000000, 0.000000000000000000, 0.8000000000000000444 ) ) ;
#73 = AXIS2_PLACEMENT_3D ( 'NONE', #44, #47, #67 ) ;
#74 = ORIENTED_EDGE ( 'NONE', *, *, #49, .T. ) ;
#75 = AXIS2_PLACEMENT_3D ( 'NONE', #25, #81, #66 ) ;
#76 = AXIS2_PLACEMENT_3D ( 'NONE', #84, #114, #17 ) ;
#77 = UNCERTAINTY_MEASURE_WITH_UNIT (LENGTH_MEASURE( 1.000000000000000082E-05 ), #122, 'distance_accuracy_value', 'NONE');
#78 = DIRECTION ( 'NONE',  ( -0.000000000000000000, -0.000000000000000000, -1.000000000000000000 ) ) ;
#79 =( LENGTH_UNIT ( ) NAMED_UNIT ( * ) SI_UNIT ( .MILLI., .METRE. ) );
#80 = ORIENTED_EDGE ( 'NONE', *, *, #30, .F. ) ;
#81 = DIRECTION ( 'NONE',  ( 0.000000000000000000, 0.000000000000000000, 1.000000000000000000 ) ) ;
#82 = VERTEX_POINT ( 'NONE', #120 ) ;
#83 = ORIENTED_EDGE ( 'NONE', *, *, #30, .T. ) ;
#84 = CARTESIAN_POINT ( 'NONE',  ( 0.000000000000000000, 0.000000000000000000, -0.8000000000000000444 ) ) ;
#85 = AXIS2_PLACEMENT_3D ( 'NONE', #72, #96, #132 ) ;
#86 = AXIS2_PLACEMENT_3D ( 'NONE', #3, #14, #22 ) ;
#87 = SURFACE_STYLE_USAGE ( .BOTH. , #131 ) ;
#88 = ADVANCED_BREP_SHAPE_REPRESENTATION ( '76.05.06.0002', ( #124, #70 ), #133 ) ;
#89 = PRODUCT_DEFINITION_CONTEXT ( 'detailed design', #102, 'design' ) ;
#90 = CYLINDRICAL_SURFACE ( 'NONE', #53, 3.200000000000000178 ) ;
#91 = VERTEX_POINT ( 'NONE', #127 ) ;
#92 = EDGE_LOOP ( 'NONE', ( #65 ) ) ;
#93 = AXIS2_PLACEMENT_3D ( 'NONE', #4, #78, #119 ) ;
#94 = ADVANCED_FACE ( 'NONE', ( #110, #130 ), #13, .T. ) ;
#95 =( LENGTH_UNIT ( ) NAMED_UNIT ( * ) SI_UNIT ( .MILLI., .METRE. ) );
#96 = DIRECTION ( 'NONE',  ( 0.000000000000000000, 0.000000000000000000, 1.000000000000000000 ) ) ;
#97 = APPLICATION_PROTOCOL_DEFINITION ( 'draft international standard', 'automotive_design', 1998, #58 ) ;
#98 = PRODUCT_CONTEXT ( 'NONE', #58, 'mechanical' ) ;
#99 = ADVANCED_FACE ( 'NONE', ( #60, #113 ), #61, .T. ) ;
#100 = DIRECTION ( 'NONE',  ( -1.000000000000000000, 0.000000000000000000, 0.000000000000000000 ) ) ;
#101 = DIRECTION ( 'NONE',  ( -0.000000000000000000, -0.000000000000000000, -1.000000000000000000 ) ) ;
#102 = APPLICATION_CONTEXT ( 'automotive_design' ) ;
#103 = MECHANICAL_DESIGN_GEOMETRIC_PRESENTATION_REPRESENTATION (  '', ( #34 ), #32 ) ;
#104 = SURFACE_STYLE_USAGE ( .BOTH. , #64 ) ;
#105 = EDGE_LOOP ( 'NONE', ( #128 ) ) ;
#106 = DIRECTION ( 'NONE',  ( 1.000000000000000000, 0.000000000000000000, -0.000000000000000000 ) ) ;
#107 = ORIENTED_EDGE ( 'NONE', *, *, #116, .T. ) ;
#108 = CARTESIAN_POINT ( 'NONE',  ( 0.000000000000000000, 0.000000000000000000, 0.000000000000000000 ) ) ;
#109 = EDGE_LOOP ( 'NONE', ( #41 ) ) ;
#110 = FACE_OUTER_BOUND ( 'NONE', #92, .T. ) ;
#111 = ADVANCED_FACE ( 'NONE', ( #35, #62 ), #90, .F. ) ;
#112 = SURFACE_STYLE_FILL_AREA ( #52 ) ;
#113 = FACE_BOUND ( 'NONE', #43, .T. ) ;
#114 = DIRECTION ( 'NONE',  ( 0.000000000000000000, 0.000000000000000000, 1.000000000000000000 ) ) ;
#115 =( NAMED_UNIT ( * ) SI_UNIT ( $, .STERADIAN. ) SOLID_ANGLE_UNIT ( ) );
#116 = EDGE_CURVE ( 'NONE', #23, #23, #71, .T. ) ;
#117 = DIRECTION ( 'NONE',  ( 0.000000000000000000, 0.000000000000000000, 1.000000000000000000 ) ) ;
#118 = PRESENTATION_LAYER_ASSIGNMENT (  '', '', ( #126 ) ) ;
#119 = DIRECTION ( 'NONE',  ( -1.000000000000000000, 0.000000000000000000, 0.000000000000000000 ) ) ;
#120 = CARTESIAN_POINT ( 'NONE',  ( 5.500000000000000000, 0.000000000000000000, 0.8000000000000000444 ) ) ;
#121 = EDGE_LOOP ( 'NONE', ( #107 ) ) ;
#122 =( LENGTH_UNIT ( ) NAMED_UNIT ( * ) SI_UNIT ( .MILLI., .METRE. ) );
#123 =( NAMED_UNIT ( * ) PLANE_ANGLE_UNIT ( ) SI_UNIT ( $, .RADIAN. ) );
#124 = MANIFOLD_SOLID_BREP ( 'Boss-Extrude1', #55 ) ;
#125 = AXIS2_PLACEMENT_3D ( 'NONE', #2, #117, #106 ) ;
#126 = STYLED_ITEM ( 'NONE', ( #50 ), #124 ) ;
#127 = CARTESIAN_POINT ( 'NONE',  ( 3.200000000000000178, 0.000000000000000000, -0.8000000000000000444 ) ) ;
#128 = ORIENTED_EDGE ( 'NONE', *, *, #1, .T. ) ;
#129 = VERTEX_POINT ( 'NONE', #40 ) ;
#130 = FACE_OUTER_BOUND ( 'NONE', #121, .T. ) ;
#131 = SURFACE_SIDE_STYLE ('',( #56 ) ) ;
#132 = DIRECTION ( 'NONE',  ( 1.000000000000000000, 0.000000000000000000, 0.000000000000000000 ) ) ;
#133 =( GEOMETRIC_REPRESENTATION_CONTEXT ( 3 ) GLOBAL_UNCERTAINTY_ASSIGNED_CONTEXT ( ( #33 ) ) GLOBAL_UNIT_ASSIGNED_CONTEXT ( ( #95, #69, #115 ) ) REPRESENTATION_CONTEXT ( 'NONE', 'WORKASPACE' ) );
#134 = APPLICATION_PROTOCOL_DEFINITION ( 'draft international standard', 'automotive_design', 1998, #102 ) ;
ENDSEC;
END-ISO-10303-21;
