ISO-10303-21;
HEADER;
FILE_DESCRIPTION (( 'STEP AP214' ),
    '1' );
FILE_NAME ('76.05.05.0006.step',
    '2021-04-02T17:37:12',
    ( '' ),
    ( '' ),
    'SwSTEP 2.0',
    'SolidWorks 2021',
    '' );
FILE_SCHEMA (( 'AUTOMOTIVE_DESIGN' ));
ENDSEC;

DATA;
#1 = FACE_OUTER_BOUND ( 'NONE', #102, .T. ) ;
#2 = AXIS2_PLACEMENT_3D ( 'NONE', #89, #134, #63 ) ;
#3 = FACE_OUTER_BOUND ( 'NONE', #33, .T. ) ;
#4 = MANIFOLD_SOLID_BREP ( 'Boss-Extrude1', #128 ) ;
#5 = VERTEX_POINT ( 'NONE', #34 ) ;
#6 =( LENGTH_UNIT ( ) NAMED_UNIT ( * ) SI_UNIT ( .MILLI., .METRE. ) );
#7 = SURFACE_STYLE_USAGE ( .BOTH. , #116 ) ;
#8 =( LENGTH_UNIT ( ) NAMED_UNIT ( * ) SI_UNIT ( .MILLI., .METRE. ) );
#9 = DIRECTION ( 'NONE',  ( 1.000000000000000000, 0.000000000000000000, 0.000000000000000000 ) ) ;
#10 = DIRECTION ( 'NONE',  ( 0.000000000000000000, 0.000000000000000000, 1.000000000000000000 ) ) ;
#11 =( NAMED_UNIT ( * ) SI_UNIT ( $, .STERADIAN. ) SOLID_ANGLE_UNIT ( ) );
#12 = EDGE_CURVE ( 'NONE', #118, #118, #70, .T. ) ;
#13 = CYLINDRICAL_SURFACE ( 'NONE', #117, 7.500000000000000000 ) ;
#14 = EDGE_CURVE ( 'NONE', #28, #28, #103, .T. ) ;
#15 = MECHANICAL_DESIGN_GEOMETRIC_PRESENTATION_REPRESENTATION (  '', ( #88 ), #119 ) ;
#16 = PRESENTATION_LAYER_ASSIGNMENT (  '', '', ( #129 ) ) ;
#17 = DIRECTION ( 'NONE',  ( 1.000000000000000000, 0.000000000000000000, -0.000000000000000000 ) ) ;
#18 = CIRCLE ( 'NONE', #95, 12.00000000000000178 ) ;
#19 = ADVANCED_BREP_SHAPE_REPRESENTATION ( '76.05.05.0006', ( #4, #113 ), #22 ) ;
#20 = ADVANCED_FACE ( 'NONE', ( #3, #122 ), #110, .F. ) ;
#21 = ORIENTED_EDGE ( 'NONE', *, *, #12, .T. ) ;
#22 =( GEOMETRIC_REPRESENTATION_CONTEXT ( 3 ) GLOBAL_UNCERTAINTY_ASSIGNED_CONTEXT ( ( #71 ) ) GLOBAL_UNIT_ASSIGNED_CONTEXT ( ( #67, #62, #11 ) ) REPRESENTATION_CONTEXT ( 'NONE', 'WORKASPACE' ) );
#23 = EDGE_LOOP ( 'NONE', ( #77 ) ) ;
#24 = CARTESIAN_POINT ( 'NONE',  ( 0.000000000000000000, 0.000000000000000000, 1.000000000000000000 ) ) ;
#25 = DIRECTION ( 'NONE',  ( 0.000000000000000000, 0.000000000000000000, 1.000000000000000000 ) ) ;
#26 = CARTESIAN_POINT ( 'NONE',  ( 0.000000000000000000, 0.000000000000000000, -1.000000000000000000 ) ) ;
#27 = EDGE_LOOP ( 'NONE', ( #75 ) ) ;
#28 = VERTEX_POINT ( 'NONE', #80 ) ;
#29 = UNCERTAINTY_MEASURE_WITH_UNIT (LENGTH_MEASURE( 1.000000000000000082E-05 ), #6, 'distance_accuracy_value', 'NONE');
#30 = SURFACE_SIDE_STYLE ('',( #90 ) ) ;
#31 =( GEOMETRIC_REPRESENTATION_CONTEXT ( 3 ) GLOBAL_UNCERTAINTY_ASSIGNED_CONTEXT ( ( #29 ) ) GLOBAL_UNIT_ASSIGNED_CONTEXT ( ( #6, #98, #40 ) ) REPRESENTATION_CONTEXT ( 'NONE', 'WORKASPACE' ) );
#32 = FILL_AREA_STYLE ('',( #46 ) ) ;
#33 = EDGE_LOOP ( 'NONE', ( #112 ) ) ;
#34 = CARTESIAN_POINT ( 'NONE',  ( 7.500000000000000000, 0.000000000000000000, 1.000000000000000000 ) ) ;
#35 = DIRECTION ( 'NONE',  ( 1.000000000000000000, 0.000000000000000000, 0.000000000000000000 ) ) ;
#36 = SHAPE_DEFINITION_REPRESENTATION ( #50, #19 ) ;
#37 = FACE_BOUND ( 'NONE', #53, .T. ) ;
#38 = PRESENTATION_STYLE_ASSIGNMENT (( #81 ) ) ;
#39 = APPLICATION_CONTEXT ( 'automotive_design' ) ;
#40 =( NAMED_UNIT ( * ) SI_UNIT ( $, .STERADIAN. ) SOLID_ANGLE_UNIT ( ) );
#41 = ORIENTED_EDGE ( 'NONE', *, *, #85, .F. ) ;
#42 = COLOUR_RGB ( '',0.7764705882352941346, 0.7568627450980391913, 0.7372549019607843590 ) ;
#43 = FACE_OUTER_BOUND ( 'NONE', #23, .T. ) ;
#44 = FILL_AREA_STYLE ('',( #108 ) ) ;
#45 = APPLICATION_PROTOCOL_DEFINITION ( 'draft international standard', 'automotive_design', 1998, #39 ) ;
#46 = FILL_AREA_STYLE_COLOUR ( '', #61 ) ;
#47 = DIRECTION ( 'NONE',  ( 1.000000000000000000, 0.000000000000000000, 0.000000000000000000 ) ) ;
#48 = PRODUCT_RELATED_PRODUCT_CATEGORY ( 'part', '', ( #92 ) ) ;
#49 = DIRECTION ( 'NONE',  ( 1.000000000000000000, 0.000000000000000000, 0.000000000000000000 ) ) ;
#50 = PRODUCT_DEFINITION_SHAPE ( 'NONE', 'NONE',  #125 ) ;
#51 = DIRECTION ( 'NONE',  ( 0.000000000000000000, 0.000000000000000000, 1.000000000000000000 ) ) ;
#52 = EDGE_LOOP ( 'NONE', ( #94 ) ) ;
#53 = EDGE_LOOP ( 'NONE', ( #123 ) ) ;
#54 = DIRECTION ( 'NONE',  ( -0.000000000000000000, -0.000000000000000000, -1.000000000000000000 ) ) ;
#55 = DIRECTION ( 'NONE',  ( 0.000000000000000000, 0.000000000000000000, 1.000000000000000000 ) ) ;
#56 = PRODUCT_DEFINITION_CONTEXT ( 'detailed design', #109, 'design' ) ;
#57 = EDGE_CURVE ( 'NONE', #5, #5, #106, .T. ) ;
#58 = CARTESIAN_POINT ( 'NONE',  ( 0.000000000000000000, 0.000000000000000000, -1.000000000000000000 ) ) ;
#59 = AXIS2_PLACEMENT_3D ( 'NONE', #97, #55, #47 ) ;
#60 = MECHANICAL_DESIGN_GEOMETRIC_PRESENTATION_REPRESENTATION (  '', ( #129 ), #31 ) ;
#61 = COLOUR_RGB ( '',0.7764705882352941346, 0.7568627450980391913, 0.7372549019607843590 ) ;
#62 =( NAMED_UNIT ( * ) PLANE_ANGLE_UNIT ( ) SI_UNIT ( $, .RADIAN. ) );
#63 = DIRECTION ( 'NONE',  ( -1.000000000000000000, 0.000000000000000000, 0.000000000000000000 ) ) ;
#64 = EDGE_LOOP ( 'NONE', ( #101 ) ) ;
#65 = CARTESIAN_POINT ( 'NONE',  ( 12.00000000000000178, 0.000000000000000000, -1.000000000000000000 ) ) ;
#66 = DIRECTION ( 'NONE',  ( 0.000000000000000000, 0.000000000000000000, 1.000000000000000000 ) ) ;
#67 =( LENGTH_UNIT ( ) NAMED_UNIT ( * ) SI_UNIT ( .MILLI., .METRE. ) );
#68 = APPLICATION_PROTOCOL_DEFINITION ( 'draft international standard', 'automotive_design', 1998, #109 ) ;
#69 = PRODUCT_CONTEXT ( 'NONE', #39, 'mechanical' ) ;
#70 = CIRCLE ( 'NONE', #59, 12.00000000000000178 ) ;
#71 = UNCERTAINTY_MEASURE_WITH_UNIT (LENGTH_MEASURE( 1.000000000000000082E-05 ), #67, 'distance_accuracy_value', 'NONE');
#72 = ADVANCED_FACE ( 'NONE', ( #131, #37 ), #93, .T. ) ;
#73 = PRESENTATION_LAYER_ASSIGNMENT (  '', '', ( #88 ) ) ;
#74 = PRODUCT_DEFINITION_FORMATION_WITH_SPECIFIED_SOURCE ( 'ANY', '', #92, .NOT_KNOWN. ) ;
#75 = ORIENTED_EDGE ( 'NONE', *, *, #85, .T. ) ;
#76 = VERTEX_POINT ( 'NONE', #124 ) ;
#77 = ORIENTED_EDGE ( 'NONE', *, *, #57, .T. ) ;
#78 = CARTESIAN_POINT ( 'NONE',  ( 0.000000000000000000, 0.000000000000000000, 1.000000000000000000 ) ) ;
#79 = AXIS2_PLACEMENT_3D ( 'NONE', #132, #51, #82 ) ;
#80 = CARTESIAN_POINT ( 'NONE',  ( 7.500000000000000000, 0.000000000000000000, -1.000000000000000000 ) ) ;
#81 = SURFACE_STYLE_USAGE ( .BOTH. , #30 ) ;
#82 = DIRECTION ( 'NONE',  ( 1.000000000000000000, 0.000000000000000000, -0.000000000000000000 ) ) ;
#83 = AXIS2_PLACEMENT_3D ( 'NONE', #26, #66, #91 ) ;
#84 = CARTESIAN_POINT ( 'NONE',  ( 0.000000000000000000, 0.000000000000000000, 0.000000000000000000 ) ) ;
#85 = EDGE_CURVE ( 'NONE', #76, #76, #18, .T. ) ;
#86 = FACE_OUTER_BOUND ( 'NONE', #52, .T. ) ;
#87 =( NAMED_UNIT ( * ) PLANE_ANGLE_UNIT ( ) SI_UNIT ( $, .RADIAN. ) );
#88 = STYLED_ITEM ( 'NONE', ( #105 ), #4 ) ;
#89 = CARTESIAN_POINT ( 'NONE',  ( 0.000000000000000000, 0.000000000000000000, 1.000000000000000000 ) ) ;
#90 = SURFACE_STYLE_FILL_AREA ( #32 ) ;
#91 = DIRECTION ( 'NONE',  ( 1.000000000000000000, 0.000000000000000000, 0.000000000000000000 ) ) ;
#92 = PRODUCT ( '76.05.05.0006', '76.05.05.0006', '', ( #69 ) ) ;
#93 = PLANE ( 'NONE',  #79 ) ;
#94 = ORIENTED_EDGE ( 'NONE', *, *, #14, .F. ) ;
#95 = AXIS2_PLACEMENT_3D ( 'NONE', #24, #25, #35 ) ;
#96 = SURFACE_STYLE_FILL_AREA ( #44 ) ;
#97 = CARTESIAN_POINT ( 'NONE',  ( 0.000000000000000000, 0.000000000000000000, -1.000000000000000000 ) ) ;
#98 =( NAMED_UNIT ( * ) PLANE_ANGLE_UNIT ( ) SI_UNIT ( $, .RADIAN. ) );
#99 = CARTESIAN_POINT ( 'NONE',  ( 0.000000000000000000, 0.000000000000000000, 1.000000000000000000 ) ) ;
#100 = DIRECTION ( 'NONE',  ( 0.000000000000000000, 0.000000000000000000, 1.000000000000000000 ) ) ;
#101 = ORIENTED_EDGE ( 'NONE', *, *, #14, .T. ) ;
#102 = EDGE_LOOP ( 'NONE', ( #41 ) ) ;
#103 = CIRCLE ( 'NONE', #83, 7.500000000000000000 ) ;
#104 = FACE_OUTER_BOUND ( 'NONE', #111, .T. ) ;
#105 = PRESENTATION_STYLE_ASSIGNMENT (( #7 ) ) ;
#106 = CIRCLE ( 'NONE', #133, 7.500000000000000000 ) ;
#107 = CYLINDRICAL_SURFACE ( 'NONE', #2, 12.00000000000000178 ) ;
#108 = FILL_AREA_STYLE_COLOUR ( '', #42 ) ;
#109 = APPLICATION_CONTEXT ( 'automotive_design' ) ;
#110 = PLANE ( 'NONE',  #127 ) ;
#111 = EDGE_LOOP ( 'NONE', ( #21 ) ) ;
#112 = ORIENTED_EDGE ( 'NONE', *, *, #12, .F. ) ;
#113 = AXIS2_PLACEMENT_3D ( 'NONE', #84, #115, #9 ) ;
#114 = DIRECTION ( 'NONE',  ( -1.000000000000000000, 0.000000000000000000, 0.000000000000000000 ) ) ;
#115 = DIRECTION ( 'NONE',  ( 0.000000000000000000, 0.000000000000000000, 1.000000000000000000 ) ) ;
#116 = SURFACE_SIDE_STYLE ('',( #96 ) ) ;
#117 = AXIS2_PLACEMENT_3D ( 'NONE', #78, #54, #114 ) ;
#118 = VERTEX_POINT ( 'NONE', #65 ) ;
#119 =( GEOMETRIC_REPRESENTATION_CONTEXT ( 3 ) GLOBAL_UNCERTAINTY_ASSIGNED_CONTEXT ( ( #126 ) ) GLOBAL_UNIT_ASSIGNED_CONTEXT ( ( #8, #87, #120 ) ) REPRESENTATION_CONTEXT ( 'NONE', 'WORKASPACE' ) );
#120 =( NAMED_UNIT ( * ) SI_UNIT ( $, .STERADIAN. ) SOLID_ANGLE_UNIT ( ) );
#121 = ADVANCED_FACE ( 'NONE', ( #1, #104 ), #107, .T. ) ;
#122 = FACE_BOUND ( 'NONE', #64, .T. ) ;
#123 = ORIENTED_EDGE ( 'NONE', *, *, #57, .F. ) ;
#124 = CARTESIAN_POINT ( 'NONE',  ( 12.00000000000000178, 0.000000000000000000, 1.000000000000000000 ) ) ;
#125 = PRODUCT_DEFINITION ( 'UNKNOWN', '', #74, #56 ) ;
#126 = UNCERTAINTY_MEASURE_WITH_UNIT (LENGTH_MEASURE( 1.000000000000000082E-05 ), #8, 'distance_accuracy_value', 'NONE');
#127 = AXIS2_PLACEMENT_3D ( 'NONE', #58, #100, #17 ) ;
#128 = CLOSED_SHELL ( 'NONE', ( #72, #20, #121, #130 ) ) ;
#129 = STYLED_ITEM ( 'NONE', ( #38 ), #19 ) ;
#130 = ADVANCED_FACE ( 'NONE', ( #43, #86 ), #13, .F. ) ;
#131 = FACE_OUTER_BOUND ( 'NONE', #27, .T. ) ;
#132 = CARTESIAN_POINT ( 'NONE',  ( 0.000000000000000000, 0.000000000000000000, 1.000000000000000000 ) ) ;
#133 = AXIS2_PLACEMENT_3D ( 'NONE', #99, #10, #49 ) ;
#134 = DIRECTION ( 'NONE',  ( -0.000000000000000000, -0.000000000000000000, -1.000000000000000000 ) ) ;
ENDSEC;
END-ISO-10303-21;
