ISO-10303-21;
HEADER;
FILE_DESCRIPTION (( 'STEP AP214' ),
    '1' );
FILE_NAME ('76.05.05.0005.step',
    '2021-04-02T17:37:11',
    ( '' ),
    ( '' ),
    'SwSTEP 2.0',
    'SolidWorks 2021',
    '' );
FILE_SCHEMA (( 'AUTOMOTIVE_DESIGN' ));
ENDSEC;

DATA;
#1 = UNCERTAINTY_MEASURE_WITH_UNIT (LENGTH_MEASURE( 1.000000000000000082E-05 ), #115, 'distance_accuracy_value', 'NONE');
#2 = ORIENTED_EDGE ( 'NONE', *, *, #14, .T. ) ;
#3 = ORIENTED_EDGE ( 'NONE', *, *, #82, .T. ) ;
#4 = VERTEX_POINT ( 'NONE', #70 ) ;
#5 = CARTESIAN_POINT ( 'NONE',  ( 0.000000000000000000, 0.000000000000000000, 1.000000000000000000 ) ) ;
#6 = APPLICATION_CONTEXT ( 'automotive_design' ) ;
#7 = CARTESIAN_POINT ( 'NONE',  ( 0.000000000000000000, 0.000000000000000000, -1.000000000000000000 ) ) ;
#8 =( NAMED_UNIT ( * ) PLANE_ANGLE_UNIT ( ) SI_UNIT ( $, .RADIAN. ) );
#9 = VERTEX_POINT ( 'NONE', #41 ) ;
#10 = DIRECTION ( 'NONE',  ( 1.000000000000000000, 0.000000000000000000, -0.000000000000000000 ) ) ;
#11 = STYLED_ITEM ( 'NONE', ( #48 ), #99 ) ;
#12 = MECHANICAL_DESIGN_GEOMETRIC_PRESENTATION_REPRESENTATION (  '', ( #11 ), #113 ) ;
#13 = PRODUCT_DEFINITION_CONTEXT ( 'detailed design', #6, 'design' ) ;
#14 = EDGE_CURVE ( 'NONE', #4, #4, #75, .T. ) ;
#15 = CYLINDRICAL_SURFACE ( 'NONE', #118, 6.500000000000000888 ) ;
#16 = DIRECTION ( 'NONE',  ( 0.000000000000000000, 0.000000000000000000, 1.000000000000000000 ) ) ;
#17 = SURFACE_STYLE_FILL_AREA ( #20 ) ;
#18 = DIRECTION ( 'NONE',  ( 1.000000000000000000, 0.000000000000000000, -0.000000000000000000 ) ) ;
#19 = DIRECTION ( 'NONE',  ( 1.000000000000000000, 0.000000000000000000, 0.000000000000000000 ) ) ;
#20 = FILL_AREA_STYLE ('',( #124 ) ) ;
#21 = FACE_OUTER_BOUND ( 'NONE', #56, .T. ) ;
#22 = CIRCLE ( 'NONE', #132, 6.500000000000000888 ) ;
#23 = UNCERTAINTY_MEASURE_WITH_UNIT (LENGTH_MEASURE( 1.000000000000000082E-05 ), #37, 'distance_accuracy_value', 'NONE');
#24 = ORIENTED_EDGE ( 'NONE', *, *, #64, .F. ) ;
#25 = CARTESIAN_POINT ( 'NONE',  ( 0.000000000000000000, 0.000000000000000000, -1.000000000000000000 ) ) ;
#26 = CYLINDRICAL_SURFACE ( 'NONE', #93, 10.00000000000000000 ) ;
#27 = CLOSED_SHELL ( 'NONE', ( #52, #77, #126, #43 ) ) ;
#28 = DIRECTION ( 'NONE',  ( -1.000000000000000000, 0.000000000000000000, 0.000000000000000000 ) ) ;
#29 = COLOUR_RGB ( '',0.7764705882352941346, 0.7568627450980391913, 0.7372549019607843590 ) ;
#30 = MANIFOLD_SOLID_BREP ( 'Boss-Extrude1', #27 ) ;
#31 = ORIENTED_EDGE ( 'NONE', *, *, #94, .F. ) ;
#32 =( GEOMETRIC_REPRESENTATION_CONTEXT ( 3 ) GLOBAL_UNCERTAINTY_ASSIGNED_CONTEXT ( ( #120 ) ) GLOBAL_UNIT_ASSIGNED_CONTEXT ( ( #39, #51, #87 ) ) REPRESENTATION_CONTEXT ( 'NONE', 'WORKASPACE' ) );
#33 =( NAMED_UNIT ( * ) SI_UNIT ( $, .STERADIAN. ) SOLID_ANGLE_UNIT ( ) );
#34 = PLANE ( 'NONE',  #116 ) ;
#35 = AXIS2_PLACEMENT_3D ( 'NONE', #25, #55, #18 ) ;
#36 = CARTESIAN_POINT ( 'NONE',  ( 0.000000000000000000, 0.000000000000000000, 1.000000000000000000 ) ) ;
#37 =( LENGTH_UNIT ( ) NAMED_UNIT ( * ) SI_UNIT ( .MILLI., .METRE. ) );
#38 = FACE_OUTER_BOUND ( 'NONE', #86, .T. ) ;
#39 =( LENGTH_UNIT ( ) NAMED_UNIT ( * ) SI_UNIT ( .MILLI., .METRE. ) );
#40 =( GEOMETRIC_REPRESENTATION_CONTEXT ( 3 ) GLOBAL_UNCERTAINTY_ASSIGNED_CONTEXT ( ( #1 ) ) GLOBAL_UNIT_ASSIGNED_CONTEXT ( ( #115, #8, #108 ) ) REPRESENTATION_CONTEXT ( 'NONE', 'WORKASPACE' ) );
#41 = CARTESIAN_POINT ( 'NONE',  ( 6.500000000000000888, 0.000000000000000000, -1.000000000000000000 ) ) ;
#42 = ORIENTED_EDGE ( 'NONE', *, *, #94, .T. ) ;
#43 = ADVANCED_FACE ( 'NONE', ( #21, #79 ), #15, .F. ) ;
#44 = STYLED_ITEM ( 'NONE', ( #57 ), #30 ) ;
#45 = PLANE ( 'NONE',  #35 ) ;
#46 = EDGE_LOOP ( 'NONE', ( #31 ) ) ;
#47 = CARTESIAN_POINT ( 'NONE',  ( 0.000000000000000000, 0.000000000000000000, 1.000000000000000000 ) ) ;
#48 = PRESENTATION_STYLE_ASSIGNMENT (( #61 ) ) ;
#49 = VERTEX_POINT ( 'NONE', #91 ) ;
#50 = CARTESIAN_POINT ( 'NONE',  ( 0.000000000000000000, 0.000000000000000000, 1.000000000000000000 ) ) ;
#51 =( NAMED_UNIT ( * ) PLANE_ANGLE_UNIT ( ) SI_UNIT ( $, .RADIAN. ) );
#52 = ADVANCED_FACE ( 'NONE', ( #103, #76 ), #34, .T. ) ;
#53 = PRODUCT_DEFINITION_SHAPE ( 'NONE', 'NONE',  #74 ) ;
#54 = EDGE_LOOP ( 'NONE', ( #117 ) ) ;
#55 = DIRECTION ( 'NONE',  ( 0.000000000000000000, 0.000000000000000000, 1.000000000000000000 ) ) ;
#56 = EDGE_LOOP ( 'NONE', ( #84 ) ) ;
#57 = PRESENTATION_STYLE_ASSIGNMENT (( #112 ) ) ;
#58 = CARTESIAN_POINT ( 'NONE',  ( 0.000000000000000000, 0.000000000000000000, -1.000000000000000000 ) ) ;
#59 = AXIS2_PLACEMENT_3D ( 'NONE', #5, #88, #130 ) ;
#60 = VERTEX_POINT ( 'NONE', #102 ) ;
#61 = SURFACE_STYLE_USAGE ( .BOTH. , #68 ) ;
#62 = DIRECTION ( 'NONE',  ( -0.000000000000000000, -0.000000000000000000, -1.000000000000000000 ) ) ;
#63 = SHAPE_DEFINITION_REPRESENTATION ( #53, #99 ) ;
#64 = EDGE_CURVE ( 'NONE', #60, #60, #22, .T. ) ;
#65 = EDGE_LOOP ( 'NONE', ( #73 ) ) ;
#66 = APPLICATION_PROTOCOL_DEFINITION ( 'draft international standard', 'automotive_design', 1998, #6 ) ;
#67 = SURFACE_STYLE_FILL_AREA ( #71 ) ;
#68 = SURFACE_SIDE_STYLE ('',( #17 ) ) ;
#69 = DIRECTION ( 'NONE',  ( 1.000000000000000000, 0.000000000000000000, 0.000000000000000000 ) ) ;
#70 = CARTESIAN_POINT ( 'NONE',  ( 10.00000000000000000, 0.000000000000000000, 1.000000000000000000 ) ) ;
#71 = FILL_AREA_STYLE ('',( #89 ) ) ;
#72 = CIRCLE ( 'NONE', #92, 10.00000000000000000 ) ;
#73 = ORIENTED_EDGE ( 'NONE', *, *, #82, .F. ) ;
#74 = PRODUCT_DEFINITION ( 'UNKNOWN', '', #107, #13 ) ;
#75 = CIRCLE ( 'NONE', #59, 10.00000000000000000 ) ;
#76 = FACE_BOUND ( 'NONE', #97, .T. ) ;
#77 = ADVANCED_FACE ( 'NONE', ( #133, #78 ), #45, .F. ) ;
#78 = FACE_BOUND ( 'NONE', #121, .T. ) ;
#79 = FACE_OUTER_BOUND ( 'NONE', #65, .T. ) ;
#80 = DIRECTION ( 'NONE',  ( 0.000000000000000000, 0.000000000000000000, 1.000000000000000000 ) ) ;
#81 = DIRECTION ( 'NONE',  ( 1.000000000000000000, 0.000000000000000000, 0.000000000000000000 ) ) ;
#82 = EDGE_CURVE ( 'NONE', #9, #9, #100, .T. ) ;
#83 = PRESENTATION_LAYER_ASSIGNMENT (  '', '', ( #11 ) ) ;
#84 = ORIENTED_EDGE ( 'NONE', *, *, #64, .T. ) ;
#85 = PRODUCT ( '76.05.05.0005', '76.05.05.0005', '', ( #129 ) ) ;
#86 = EDGE_LOOP ( 'NONE', ( #42 ) ) ;
#87 =( NAMED_UNIT ( * ) SI_UNIT ( $, .STERADIAN. ) SOLID_ANGLE_UNIT ( ) );
#88 = DIRECTION ( 'NONE',  ( 0.000000000000000000, 0.000000000000000000, 1.000000000000000000 ) ) ;
#89 = FILL_AREA_STYLE_COLOUR ( '', #29 ) ;
#90 = DIRECTION ( 'NONE',  ( 0.000000000000000000, 0.000000000000000000, 1.000000000000000000 ) ) ;
#91 = CARTESIAN_POINT ( 'NONE',  ( 10.00000000000000000, 0.000000000000000000, -1.000000000000000000 ) ) ;
#92 = AXIS2_PLACEMENT_3D ( 'NONE', #7, #90, #19 ) ;
#93 = AXIS2_PLACEMENT_3D ( 'NONE', #47, #96, #28 ) ;
#94 = EDGE_CURVE ( 'NONE', #49, #49, #72, .T. ) ;
#95 = EDGE_LOOP ( 'NONE', ( #2 ) ) ;
#96 = DIRECTION ( 'NONE',  ( -0.000000000000000000, -0.000000000000000000, -1.000000000000000000 ) ) ;
#97 = EDGE_LOOP ( 'NONE', ( #24 ) ) ;
#98 = DIRECTION ( 'NONE',  ( 0.000000000000000000, 0.000000000000000000, 1.000000000000000000 ) ) ;
#99 = ADVANCED_BREP_SHAPE_REPRESENTATION ( '76.05.05.0005', ( #30, #119 ), #32 ) ;
#100 = CIRCLE ( 'NONE', #122, 6.500000000000000888 ) ;
#101 = SURFACE_SIDE_STYLE ('',( #67 ) ) ;
#102 = CARTESIAN_POINT ( 'NONE',  ( 6.500000000000000888, 0.000000000000000000, 1.000000000000000000 ) ) ;
#103 = FACE_OUTER_BOUND ( 'NONE', #95, .T. ) ;
#104 = CARTESIAN_POINT ( 'NONE',  ( 0.000000000000000000, 0.000000000000000000, 0.000000000000000000 ) ) ;
#105 = APPLICATION_CONTEXT ( 'automotive_design' ) ;
#106 = PRESENTATION_LAYER_ASSIGNMENT (  '', '', ( #44 ) ) ;
#107 = PRODUCT_DEFINITION_FORMATION_WITH_SPECIFIED_SOURCE ( 'ANY', '', #85, .NOT_KNOWN. ) ;
#108 =( NAMED_UNIT ( * ) SI_UNIT ( $, .STERADIAN. ) SOLID_ANGLE_UNIT ( ) );
#109 = DIRECTION ( 'NONE',  ( -1.000000000000000000, 0.000000000000000000, 0.000000000000000000 ) ) ;
#110 = DIRECTION ( 'NONE',  ( 1.000000000000000000, 0.000000000000000000, 0.000000000000000000 ) ) ;
#111 = COLOUR_RGB ( '',0.7764705882352941346, 0.7568627450980391913, 0.7372549019607843590 ) ;
#112 = SURFACE_STYLE_USAGE ( .BOTH. , #101 ) ;
#113 =( GEOMETRIC_REPRESENTATION_CONTEXT ( 3 ) GLOBAL_UNCERTAINTY_ASSIGNED_CONTEXT ( ( #23 ) ) GLOBAL_UNIT_ASSIGNED_CONTEXT ( ( #37, #125, #33 ) ) REPRESENTATION_CONTEXT ( 'NONE', 'WORKASPACE' ) );
#114 = APPLICATION_PROTOCOL_DEFINITION ( 'draft international standard', 'automotive_design', 1998, #105 ) ;
#115 =( LENGTH_UNIT ( ) NAMED_UNIT ( * ) SI_UNIT ( .MILLI., .METRE. ) );
#116 = AXIS2_PLACEMENT_3D ( 'NONE', #123, #16, #10 ) ;
#117 = ORIENTED_EDGE ( 'NONE', *, *, #14, .F. ) ;
#118 = AXIS2_PLACEMENT_3D ( 'NONE', #36, #62, #109 ) ;
#119 = AXIS2_PLACEMENT_3D ( 'NONE', #104, #134, #81 ) ;
#120 = UNCERTAINTY_MEASURE_WITH_UNIT (LENGTH_MEASURE( 1.000000000000000082E-05 ), #39, 'distance_accuracy_value', 'NONE');
#121 = EDGE_LOOP ( 'NONE', ( #3 ) ) ;
#122 = AXIS2_PLACEMENT_3D ( 'NONE', #58, #98, #69 ) ;
#123 = CARTESIAN_POINT ( 'NONE',  ( 0.000000000000000000, 0.000000000000000000, 1.000000000000000000 ) ) ;
#124 = FILL_AREA_STYLE_COLOUR ( '', #111 ) ;
#125 =( NAMED_UNIT ( * ) PLANE_ANGLE_UNIT ( ) SI_UNIT ( $, .RADIAN. ) );
#126 = ADVANCED_FACE ( 'NONE', ( #131, #38 ), #26, .T. ) ;
#127 = MECHANICAL_DESIGN_GEOMETRIC_PRESENTATION_REPRESENTATION (  '', ( #44 ), #40 ) ;
#128 = PRODUCT_RELATED_PRODUCT_CATEGORY ( 'part', '', ( #85 ) ) ;
#129 = PRODUCT_CONTEXT ( 'NONE', #105, 'mechanical' ) ;
#130 = DIRECTION ( 'NONE',  ( 1.000000000000000000, 0.000000000000000000, 0.000000000000000000 ) ) ;
#131 = FACE_OUTER_BOUND ( 'NONE', #54, .T. ) ;
#132 = AXIS2_PLACEMENT_3D ( 'NONE', #50, #80, #110 ) ;
#133 = FACE_OUTER_BOUND ( 'NONE', #46, .T. ) ;
#134 = DIRECTION ( 'NONE',  ( 0.000000000000000000, 0.000000000000000000, 1.000000000000000000 ) ) ;
ENDSEC;
END-ISO-10303-21;
