ISO-10303-21;
HEADER;
FILE_DESCRIPTION (( 'STEP AP214' ),
    '1' );
FILE_NAME ('76.05.05.0004.step',
    '2021-04-02T17:37:10',
    ( '' ),
    ( '' ),
    'SwSTEP 2.0',
    'SolidWorks 2021',
    '' );
FILE_SCHEMA (( 'AUTOMOTIVE_DESIGN' ));
ENDSEC;

DATA;
#1 = DIRECTION ( 'NONE',  ( 0.000000000000000000, 0.000000000000000000, 1.000000000000000000 ) ) ;
#2 = EDGE_LOOP ( 'NONE', ( #50 ) ) ;
#3 = DIRECTION ( 'NONE',  ( -1.000000000000000000, 0.000000000000000000, 0.000000000000000000 ) ) ;
#4 = ORIENTED_EDGE ( 'NONE', *, *, #107, .F. ) ;
#5 = SURFACE_STYLE_USAGE ( .BOTH. , #99 ) ;
#6 = DIRECTION ( 'NONE',  ( -0.000000000000000000, -0.000000000000000000, -1.000000000000000000 ) ) ;
#7 = AXIS2_PLACEMENT_3D ( 'NONE', #26, #11, #101 ) ;
#8 = CARTESIAN_POINT ( 'NONE',  ( 0.000000000000000000, 0.000000000000000000, 0.8000000000000000444 ) ) ;
#9 =( NAMED_UNIT ( * ) PLANE_ANGLE_UNIT ( ) SI_UNIT ( $, .RADIAN. ) );
#10 = EDGE_CURVE ( 'NONE', #34, #34, #102, .T. ) ;
#11 = DIRECTION ( 'NONE',  ( 0.000000000000000000, 0.000000000000000000, 1.000000000000000000 ) ) ;
#12 = UNCERTAINTY_MEASURE_WITH_UNIT (LENGTH_MEASURE( 1.000000000000000082E-05 ), #116, 'distance_accuracy_value', 'NONE');
#13 = EDGE_LOOP ( 'NONE', ( #42 ) ) ;
#14 = CARTESIAN_POINT ( 'NONE',  ( 0.000000000000000000, 0.000000000000000000, -0.8000000000000000444 ) ) ;
#15 =( NAMED_UNIT ( * ) SI_UNIT ( $, .STERADIAN. ) SOLID_ANGLE_UNIT ( ) );
#16 = FILL_AREA_STYLE_COLOUR ( '', #64 ) ;
#17 = PRESENTATION_LAYER_ASSIGNMENT (  '', '', ( #104 ) ) ;
#18 = APPLICATION_CONTEXT ( 'automotive_design' ) ;
#19 = DIRECTION ( 'NONE',  ( 0.000000000000000000, 0.000000000000000000, 1.000000000000000000 ) ) ;
#20 = CIRCLE ( 'NONE', #48, 9.000000000000000000 ) ;
#21 = FACE_BOUND ( 'NONE', #13, .T. ) ;
#22 = DIRECTION ( 'NONE',  ( 1.000000000000000000, 0.000000000000000000, -0.000000000000000000 ) ) ;
#23 = MECHANICAL_DESIGN_GEOMETRIC_PRESENTATION_REPRESENTATION (  '', ( #104 ), #52 ) ;
#24 = DIRECTION ( 'NONE',  ( 1.000000000000000000, 0.000000000000000000, -0.000000000000000000 ) ) ;
#25 = MECHANICAL_DESIGN_GEOMETRIC_PRESENTATION_REPRESENTATION (  '', ( #80 ), #133 ) ;
#26 = CARTESIAN_POINT ( 'NONE',  ( 0.000000000000000000, 0.000000000000000000, 0.000000000000000000 ) ) ;
#27 = APPLICATION_CONTEXT ( 'automotive_design' ) ;
#28 = PRESENTATION_STYLE_ASSIGNMENT (( #129 ) ) ;
#29 = ORIENTED_EDGE ( 'NONE', *, *, #107, .T. ) ;
#30 = CIRCLE ( 'NONE', #79, 5.250000000000000000 ) ;
#31 =( NAMED_UNIT ( * ) PLANE_ANGLE_UNIT ( ) SI_UNIT ( $, .RADIAN. ) );
#32 = SURFACE_STYLE_FILL_AREA ( #108 ) ;
#33 = CYLINDRICAL_SURFACE ( 'NONE', #114, 5.250000000000000000 ) ;
#34 = VERTEX_POINT ( 'NONE', #87 ) ;
#35 = AXIS2_PLACEMENT_3D ( 'NONE', #130, #19, #119 ) ;
#36 = FACE_BOUND ( 'NONE', #105, .T. ) ;
#37 = PRODUCT_DEFINITION_CONTEXT ( 'detailed design', #18, 'design' ) ;
#38 = PRODUCT_DEFINITION ( 'UNKNOWN', '', #127, #37 ) ;
#39 = CARTESIAN_POINT ( 'NONE',  ( 0.000000000000000000, 0.000000000000000000, -0.8000000000000000444 ) ) ;
#40 = DIRECTION ( 'NONE',  ( 0.000000000000000000, 0.000000000000000000, 1.000000000000000000 ) ) ;
#41 = ORIENTED_EDGE ( 'NONE', *, *, #78, .T. ) ;
#42 = ORIENTED_EDGE ( 'NONE', *, *, #96, .T. ) ;
#43 = PRESENTATION_STYLE_ASSIGNMENT (( #5 ) ) ;
#44 = DIRECTION ( 'NONE',  ( -1.000000000000000000, 0.000000000000000000, 0.000000000000000000 ) ) ;
#45 = CARTESIAN_POINT ( 'NONE',  ( 5.250000000000000000, 0.000000000000000000, -0.8000000000000000444 ) ) ;
#46 =( NAMED_UNIT ( * ) SI_UNIT ( $, .STERADIAN. ) SOLID_ANGLE_UNIT ( ) );
#47 = PLANE ( 'NONE',  #89 ) ;
#48 = AXIS2_PLACEMENT_3D ( 'NONE', #60, #40, #54 ) ;
#49 = CARTESIAN_POINT ( 'NONE',  ( 0.000000000000000000, 0.000000000000000000, 0.8000000000000000444 ) ) ;
#50 = ORIENTED_EDGE ( 'NONE', *, *, #78, .F. ) ;
#51 = FILL_AREA_STYLE_COLOUR ( '', #82 ) ;
#52 =( GEOMETRIC_REPRESENTATION_CONTEXT ( 3 ) GLOBAL_UNCERTAINTY_ASSIGNED_CONTEXT ( ( #12 ) ) GLOBAL_UNIT_ASSIGNED_CONTEXT ( ( #116, #31, #46 ) ) REPRESENTATION_CONTEXT ( 'NONE', 'WORKASPACE' ) );
#53 = ADVANCED_FACE ( 'NONE', ( #97, #132 ), #75, .T. ) ;
#54 = DIRECTION ( 'NONE',  ( 1.000000000000000000, 0.000000000000000000, 0.000000000000000000 ) ) ;
#55 = CIRCLE ( 'NONE', #88, 5.250000000000000000 ) ;
#56 = APPLICATION_PROTOCOL_DEFINITION ( 'draft international standard', 'automotive_design', 1998, #18 ) ;
#57 = FACE_OUTER_BOUND ( 'NONE', #71, .T. ) ;
#58 = APPLICATION_PROTOCOL_DEFINITION ( 'draft international standard', 'automotive_design', 1998, #27 ) ;
#59 = FACE_OUTER_BOUND ( 'NONE', #74, .T. ) ;
#60 = CARTESIAN_POINT ( 'NONE',  ( 0.000000000000000000, 0.000000000000000000, -0.8000000000000000444 ) ) ;
#61 = ADVANCED_FACE ( 'NONE', ( #59, #85 ), #33, .F. ) ;
#62 = ORIENTED_EDGE ( 'NONE', *, *, #96, .F. ) ;
#63 = ADVANCED_BREP_SHAPE_REPRESENTATION ( '76.05.05.0004', ( #94, #7 ), #106 ) ;
#64 = COLOUR_RGB ( '',0.7764705882352941346, 0.7568627450980391913, 0.7372549019607843590 ) ;
#65 = ORIENTED_EDGE ( 'NONE', *, *, #10, .F. ) ;
#66 = VERTEX_POINT ( 'NONE', #98 ) ;
#67 = DIRECTION ( 'NONE',  ( 1.000000000000000000, 0.000000000000000000, 0.000000000000000000 ) ) ;
#68 = PRODUCT ( '76.05.05.0004', '76.05.05.0004', '', ( #69 ) ) ;
#69 = PRODUCT_CONTEXT ( 'NONE', #27, 'mechanical' ) ;
#70 = AXIS2_PLACEMENT_3D ( 'NONE', #14, #134, #24 ) ;
#71 = EDGE_LOOP ( 'NONE', ( #81 ) ) ;
#72 = PRODUCT_RELATED_PRODUCT_CATEGORY ( 'part', '', ( #68 ) ) ;
#73 = FILL_AREA_STYLE ('',( #51 ) ) ;
#74 = EDGE_LOOP ( 'NONE', ( #29 ) ) ;
#75 = CYLINDRICAL_SURFACE ( 'NONE', #93, 9.000000000000000000 ) ;
#76 = VERTEX_POINT ( 'NONE', #45 ) ;
#77 =( LENGTH_UNIT ( ) NAMED_UNIT ( * ) SI_UNIT ( .MILLI., .METRE. ) );
#78 = EDGE_CURVE ( 'NONE', #86, #86, #20, .T. ) ;
#79 = AXIS2_PLACEMENT_3D ( 'NONE', #39, #84, #67 ) ;
#80 = STYLED_ITEM ( 'NONE', ( #43 ), #63 ) ;
#81 = ORIENTED_EDGE ( 'NONE', *, *, #10, .T. ) ;
#82 = COLOUR_RGB ( '',0.7764705882352941346, 0.7568627450980391913, 0.7372549019607843590 ) ;
#83 = SURFACE_STYLE_FILL_AREA ( #73 ) ;
#84 = DIRECTION ( 'NONE',  ( 0.000000000000000000, 0.000000000000000000, 1.000000000000000000 ) ) ;
#85 = FACE_OUTER_BOUND ( 'NONE', #118, .T. ) ;
#86 = VERTEX_POINT ( 'NONE', #125 ) ;
#87 = CARTESIAN_POINT ( 'NONE',  ( 9.000000000000000000, 0.000000000000000000, 0.8000000000000000444 ) ) ;
#88 = AXIS2_PLACEMENT_3D ( 'NONE', #109, #124, #111 ) ;
#89 = AXIS2_PLACEMENT_3D ( 'NONE', #8, #1, #22 ) ;
#90 = UNCERTAINTY_MEASURE_WITH_UNIT (LENGTH_MEASURE( 1.000000000000000082E-05 ), #123, 'distance_accuracy_value', 'NONE');
#91 = PRESENTATION_LAYER_ASSIGNMENT (  '', '', ( #80 ) ) ;
#92 = DIRECTION ( 'NONE',  ( -0.000000000000000000, -0.000000000000000000, -1.000000000000000000 ) ) ;
#93 = AXIS2_PLACEMENT_3D ( 'NONE', #121, #6, #44 ) ;
#94 = MANIFOLD_SOLID_BREP ( 'Boss-Extrude1', #120 ) ;
#95 = EDGE_LOOP ( 'NONE', ( #41 ) ) ;
#96 = EDGE_CURVE ( 'NONE', #76, #76, #30, .T. ) ;
#97 = FACE_OUTER_BOUND ( 'NONE', #117, .T. ) ;
#98 = CARTESIAN_POINT ( 'NONE',  ( 5.250000000000000000, 0.000000000000000000, 0.8000000000000000444 ) ) ;
#99 = SURFACE_SIDE_STYLE ('',( #32 ) ) ;
#100 =( NAMED_UNIT ( * ) SI_UNIT ( $, .STERADIAN. ) SOLID_ANGLE_UNIT ( ) );
#101 = DIRECTION ( 'NONE',  ( 1.000000000000000000, 0.000000000000000000, 0.000000000000000000 ) ) ;
#102 = CIRCLE ( 'NONE', #35, 9.000000000000000000 ) ;
#103 = PRODUCT_DEFINITION_SHAPE ( 'NONE', 'NONE',  #38 ) ;
#104 = STYLED_ITEM ( 'NONE', ( #28 ), #94 ) ;
#105 = EDGE_LOOP ( 'NONE', ( #4 ) ) ;
#106 =( GEOMETRIC_REPRESENTATION_CONTEXT ( 3 ) GLOBAL_UNCERTAINTY_ASSIGNED_CONTEXT ( ( #90 ) ) GLOBAL_UNIT_ASSIGNED_CONTEXT ( ( #123, #9, #15 ) ) REPRESENTATION_CONTEXT ( 'NONE', 'WORKASPACE' ) );
#107 = EDGE_CURVE ( 'NONE', #66, #66, #55, .T. ) ;
#108 = FILL_AREA_STYLE ('',( #16 ) ) ;
#109 = CARTESIAN_POINT ( 'NONE',  ( 0.000000000000000000, 0.000000000000000000, 0.8000000000000000444 ) ) ;
#110 =( NAMED_UNIT ( * ) PLANE_ANGLE_UNIT ( ) SI_UNIT ( $, .RADIAN. ) );
#111 = DIRECTION ( 'NONE',  ( 1.000000000000000000, 0.000000000000000000, 0.000000000000000000 ) ) ;
#112 = SHAPE_DEFINITION_REPRESENTATION ( #103, #63 ) ;
#113 = PLANE ( 'NONE',  #70 ) ;
#114 = AXIS2_PLACEMENT_3D ( 'NONE', #49, #92, #3 ) ;
#115 = ADVANCED_FACE ( 'NONE', ( #57, #36 ), #47, .T. ) ;
#116 =( LENGTH_UNIT ( ) NAMED_UNIT ( * ) SI_UNIT ( .MILLI., .METRE. ) );
#117 = EDGE_LOOP ( 'NONE', ( #65 ) ) ;
#118 = EDGE_LOOP ( 'NONE', ( #62 ) ) ;
#119 = DIRECTION ( 'NONE',  ( 1.000000000000000000, 0.000000000000000000, 0.000000000000000000 ) ) ;
#120 = CLOSED_SHELL ( 'NONE', ( #115, #126, #53, #61 ) ) ;
#121 = CARTESIAN_POINT ( 'NONE',  ( 0.000000000000000000, 0.000000000000000000, 0.8000000000000000444 ) ) ;
#122 = FACE_OUTER_BOUND ( 'NONE', #2, .T. ) ;
#123 =( LENGTH_UNIT ( ) NAMED_UNIT ( * ) SI_UNIT ( .MILLI., .METRE. ) );
#124 = DIRECTION ( 'NONE',  ( 0.000000000000000000, 0.000000000000000000, 1.000000000000000000 ) ) ;
#125 = CARTESIAN_POINT ( 'NONE',  ( 9.000000000000000000, 0.000000000000000000, -0.8000000000000000444 ) ) ;
#126 = ADVANCED_FACE ( 'NONE', ( #122, #21 ), #113, .F. ) ;
#127 = PRODUCT_DEFINITION_FORMATION_WITH_SPECIFIED_SOURCE ( 'ANY', '', #68, .NOT_KNOWN. ) ;
#128 = UNCERTAINTY_MEASURE_WITH_UNIT (LENGTH_MEASURE( 1.000000000000000082E-05 ), #77, 'distance_accuracy_value', 'NONE');
#129 = SURFACE_STYLE_USAGE ( .BOTH. , #131 ) ;
#130 = CARTESIAN_POINT ( 'NONE',  ( 0.000000000000000000, 0.000000000000000000, 0.8000000000000000444 ) ) ;
#131 = SURFACE_SIDE_STYLE ('',( #83 ) ) ;
#132 = FACE_OUTER_BOUND ( 'NONE', #95, .T. ) ;
#133 =( GEOMETRIC_REPRESENTATION_CONTEXT ( 3 ) GLOBAL_UNCERTAINTY_ASSIGNED_CONTEXT ( ( #128 ) ) GLOBAL_UNIT_ASSIGNED_CONTEXT ( ( #77, #110, #100 ) ) REPRESENTATION_CONTEXT ( 'NONE', 'WORKASPACE' ) );
#134 = DIRECTION ( 'NONE',  ( 0.000000000000000000, 0.000000000000000000, 1.000000000000000000 ) ) ;
ENDSEC;
END-ISO-10303-21;
