ISO-10303-21;
HEADER;
FILE_DESCRIPTION (( 'STEP AP214' ),
    '1' );
FILE_NAME ('76.05.05.0003.step',
    '2021-04-02T17:37:09',
    ( '' ),
    ( '' ),
    'SwSTEP 2.0',
    'SolidWorks 2021',
    '' );
FILE_SCHEMA (( 'AUTOMOTIVE_DESIGN' ));
ENDSEC;

DATA;
#1 = EDGE_LOOP ( 'NONE', ( #15 ) ) ;
#2 = APPLICATION_CONTEXT ( 'automotive_design' ) ;
#3 = COLOUR_RGB ( '',0.7764705882352941346, 0.7568627450980391913, 0.7372549019607843590 ) ;
#4 = CARTESIAN_POINT ( 'NONE',  ( 0.000000000000000000, 0.000000000000000000, 0.8000000000000000444 ) ) ;
#5 = DIRECTION ( 'NONE',  ( 1.000000000000000000, 0.000000000000000000, 0.000000000000000000 ) ) ;
#6 = FILL_AREA_STYLE ('',( #38 ) ) ;
#7 = DIRECTION ( 'NONE',  ( 1.000000000000000000, 0.000000000000000000, -0.000000000000000000 ) ) ;
#8 = PRODUCT_DEFINITION_CONTEXT ( 'detailed design', #41, 'design' ) ;
#9 = DIRECTION ( 'NONE',  ( 0.000000000000000000, 0.000000000000000000, 1.000000000000000000 ) ) ;
#10 = STYLED_ITEM ( 'NONE', ( #31 ), #52 ) ;
#11 = AXIS2_PLACEMENT_3D ( 'NONE', #4, #28, #84 ) ;
#12 = FACE_OUTER_BOUND ( 'NONE', #59, .T. ) ;
#13 = CIRCLE ( 'NONE', #25, 4.200000000000000178 ) ;
#14 = ADVANCED_FACE ( 'NONE', ( #72, #12 ), #115, .F. ) ;
#15 = ORIENTED_EDGE ( 'NONE', *, *, #124, .T. ) ;
#16 = DIRECTION ( 'NONE',  ( -0.000000000000000000, -0.000000000000000000, -1.000000000000000000 ) ) ;
#17 = AXIS2_PLACEMENT_3D ( 'NONE', #20, #107, #7 ) ;
#18 =( NAMED_UNIT ( * ) PLANE_ANGLE_UNIT ( ) SI_UNIT ( $, .RADIAN. ) );
#19 = CARTESIAN_POINT ( 'NONE',  ( 7.500000000000000000, 0.000000000000000000, 0.8000000000000000444 ) ) ;
#20 = CARTESIAN_POINT ( 'NONE',  ( 0.000000000000000000, 0.000000000000000000, -0.8000000000000000444 ) ) ;
#21 = SURFACE_SIDE_STYLE ('',( #56 ) ) ;
#22 =( NAMED_UNIT ( * ) PLANE_ANGLE_UNIT ( ) SI_UNIT ( $, .RADIAN. ) );
#23 = DIRECTION ( 'NONE',  ( 1.000000000000000000, 0.000000000000000000, 0.000000000000000000 ) ) ;
#24 = CARTESIAN_POINT ( 'NONE',  ( 0.000000000000000000, 0.000000000000000000, 0.8000000000000000444 ) ) ;
#25 = AXIS2_PLACEMENT_3D ( 'NONE', #24, #127, #44 ) ;
#26 = ORIENTED_EDGE ( 'NONE', *, *, #96, .F. ) ;
#27 = FACE_BOUND ( 'NONE', #71, .T. ) ;
#28 = DIRECTION ( 'NONE',  ( 0.000000000000000000, 0.000000000000000000, 1.000000000000000000 ) ) ;
#29 =( LENGTH_UNIT ( ) NAMED_UNIT ( * ) SI_UNIT ( .MILLI., .METRE. ) );
#30 = CARTESIAN_POINT ( 'NONE',  ( 4.200000000000000178, 0.000000000000000000, -0.8000000000000000444 ) ) ;
#31 = PRESENTATION_STYLE_ASSIGNMENT (( #83 ) ) ;
#32 = CARTESIAN_POINT ( 'NONE',  ( 0.000000000000000000, 0.000000000000000000, 0.000000000000000000 ) ) ;
#33 = UNCERTAINTY_MEASURE_WITH_UNIT (LENGTH_MEASURE( 1.000000000000000082E-05 ), #40, 'distance_accuracy_value', 'NONE');
#34 = EDGE_LOOP ( 'NONE', ( #112 ) ) ;
#35 =( LENGTH_UNIT ( ) NAMED_UNIT ( * ) SI_UNIT ( .MILLI., .METRE. ) );
#36 = VERTEX_POINT ( 'NONE', #74 ) ;
#37 = FACE_OUTER_BOUND ( 'NONE', #34, .T. ) ;
#38 = FILL_AREA_STYLE_COLOUR ( '', #3 ) ;
#39 = AXIS2_PLACEMENT_3D ( 'NONE', #32, #9, #58 ) ;
#40 =( LENGTH_UNIT ( ) NAMED_UNIT ( * ) SI_UNIT ( .MILLI., .METRE. ) );
#41 = APPLICATION_CONTEXT ( 'automotive_design' ) ;
#42 = CARTESIAN_POINT ( 'NONE',  ( 0.000000000000000000, 0.000000000000000000, -0.8000000000000000444 ) ) ;
#43 = APPLICATION_PROTOCOL_DEFINITION ( 'draft international standard', 'automotive_design', 1998, #2 ) ;
#44 = DIRECTION ( 'NONE',  ( 1.000000000000000000, 0.000000000000000000, 0.000000000000000000 ) ) ;
#45 = DIRECTION ( 'NONE',  ( 0.000000000000000000, 0.000000000000000000, 1.000000000000000000 ) ) ;
#46 =( NAMED_UNIT ( * ) SI_UNIT ( $, .STERADIAN. ) SOLID_ANGLE_UNIT ( ) );
#47 = FILL_AREA_STYLE ('',( #65 ) ) ;
#48 = CARTESIAN_POINT ( 'NONE',  ( 7.500000000000000000, 0.000000000000000000, -0.8000000000000000444 ) ) ;
#49 = AXIS2_PLACEMENT_3D ( 'NONE', #102, #16, #134 ) ;
#50 = EDGE_LOOP ( 'NONE', ( #26 ) ) ;
#51 = PLANE ( 'NONE',  #11 ) ;
#52 = MANIFOLD_SOLID_BREP ( 'Boss-Extrude1', #114 ) ;
#53 = CARTESIAN_POINT ( 'NONE',  ( 0.000000000000000000, 0.000000000000000000, 0.8000000000000000444 ) ) ;
#54 = ADVANCED_BREP_SHAPE_REPRESENTATION ( '76.05.05.0003', ( #52, #39 ), #81 ) ;
#55 =( NAMED_UNIT ( * ) PLANE_ANGLE_UNIT ( ) SI_UNIT ( $, .RADIAN. ) );
#56 = SURFACE_STYLE_FILL_AREA ( #47 ) ;
#57 = FACE_BOUND ( 'NONE', #125, .T. ) ;
#58 = DIRECTION ( 'NONE',  ( 1.000000000000000000, 0.000000000000000000, 0.000000000000000000 ) ) ;
#59 = EDGE_LOOP ( 'NONE', ( #98 ) ) ;
#60 = DIRECTION ( 'NONE',  ( 0.000000000000000000, 0.000000000000000000, 1.000000000000000000 ) ) ;
#61 = MECHANICAL_DESIGN_GEOMETRIC_PRESENTATION_REPRESENTATION (  '', ( #133 ), #88 ) ;
#62 = PLANE ( 'NONE',  #17 ) ;
#63 = DIRECTION ( 'NONE',  ( -1.000000000000000000, 0.000000000000000000, 0.000000000000000000 ) ) ;
#64 = FACE_OUTER_BOUND ( 'NONE', #80, .T. ) ;
#65 = FILL_AREA_STYLE_COLOUR ( '', #67 ) ;
#66 = PRODUCT_CONTEXT ( 'NONE', #2, 'mechanical' ) ;
#67 = COLOUR_RGB ( '',0.7764705882352941346, 0.7568627450980391913, 0.7372549019607843590 ) ;
#68 = AXIS2_PLACEMENT_3D ( 'NONE', #53, #45, #23 ) ;
#69 = PRODUCT ( '76.05.05.0003', '76.05.05.0003', '', ( #66 ) ) ;
#70 = ORIENTED_EDGE ( 'NONE', *, *, #96, .T. ) ;
#71 = EDGE_LOOP ( 'NONE', ( #89 ) ) ;
#72 = FACE_OUTER_BOUND ( 'NONE', #1, .T. ) ;
#73 = SURFACE_SIDE_STYLE ('',( #75 ) ) ;
#74 = CARTESIAN_POINT ( 'NONE',  ( 4.200000000000000178, 0.000000000000000000, 0.8000000000000000444 ) ) ;
#75 = SURFACE_STYLE_FILL_AREA ( #6 ) ;
#76 = PRESENTATION_STYLE_ASSIGNMENT (( #85 ) ) ;
#77 = CIRCLE ( 'NONE', #68, 7.500000000000000000 ) ;
#78 = ADVANCED_FACE ( 'NONE', ( #37, #27 ), #62, .F. ) ;
#79 = UNCERTAINTY_MEASURE_WITH_UNIT (LENGTH_MEASURE( 1.000000000000000082E-05 ), #29, 'distance_accuracy_value', 'NONE');
#80 = EDGE_LOOP ( 'NONE', ( #70 ) ) ;
#81 =( GEOMETRIC_REPRESENTATION_CONTEXT ( 3 ) GLOBAL_UNCERTAINTY_ASSIGNED_CONTEXT ( ( #92 ) ) GLOBAL_UNIT_ASSIGNED_CONTEXT ( ( #35, #22, #103 ) ) REPRESENTATION_CONTEXT ( 'NONE', 'WORKASPACE' ) );
#82 = CARTESIAN_POINT ( 'NONE',  ( 0.000000000000000000, 0.000000000000000000, 0.8000000000000000444 ) ) ;
#83 = SURFACE_STYLE_USAGE ( .BOTH. , #21 ) ;
#84 = DIRECTION ( 'NONE',  ( 1.000000000000000000, 0.000000000000000000, -0.000000000000000000 ) ) ;
#85 = SURFACE_STYLE_USAGE ( .BOTH. , #73 ) ;
#86 = AXIS2_PLACEMENT_3D ( 'NONE', #42, #119, #104 ) ;
#87 = PRODUCT_RELATED_PRODUCT_CATEGORY ( 'part', '', ( #69 ) ) ;
#88 =( GEOMETRIC_REPRESENTATION_CONTEXT ( 3 ) GLOBAL_UNCERTAINTY_ASSIGNED_CONTEXT ( ( #79 ) ) GLOBAL_UNIT_ASSIGNED_CONTEXT ( ( #29, #55, #46 ) ) REPRESENTATION_CONTEXT ( 'NONE', 'WORKASPACE' ) );
#89 = ORIENTED_EDGE ( 'NONE', *, *, #131, .T. ) ;
#90 = FACE_OUTER_BOUND ( 'NONE', #101, .T. ) ;
#91 = PRODUCT_DEFINITION_SHAPE ( 'NONE', 'NONE',  #118 ) ;
#92 = UNCERTAINTY_MEASURE_WITH_UNIT (LENGTH_MEASURE( 1.000000000000000082E-05 ), #35, 'distance_accuracy_value', 'NONE');
#93 = VERTEX_POINT ( 'NONE', #48 ) ;
#94 = CYLINDRICAL_SURFACE ( 'NONE', #120, 7.500000000000000000 ) ;
#95 = PRESENTATION_LAYER_ASSIGNMENT (  '', '', ( #10 ) ) ;
#96 = EDGE_CURVE ( 'NONE', #128, #128, #77, .T. ) ;
#97 = CIRCLE ( 'NONE', #86, 4.200000000000000178 ) ;
#98 = ORIENTED_EDGE ( 'NONE', *, *, #131, .F. ) ;
#99 = ORIENTED_EDGE ( 'NONE', *, *, #124, .F. ) ;
#100 = PRESENTATION_LAYER_ASSIGNMENT (  '', '', ( #133 ) ) ;
#101 = EDGE_LOOP ( 'NONE', ( #113 ) ) ;
#102 = CARTESIAN_POINT ( 'NONE',  ( 0.000000000000000000, 0.000000000000000000, 0.8000000000000000444 ) ) ;
#103 =( NAMED_UNIT ( * ) SI_UNIT ( $, .STERADIAN. ) SOLID_ANGLE_UNIT ( ) );
#104 = DIRECTION ( 'NONE',  ( 1.000000000000000000, 0.000000000000000000, 0.000000000000000000 ) ) ;
#105 = CIRCLE ( 'NONE', #123, 7.500000000000000000 ) ;
#106 = VERTEX_POINT ( 'NONE', #30 ) ;
#107 = DIRECTION ( 'NONE',  ( 0.000000000000000000, 0.000000000000000000, 1.000000000000000000 ) ) ;
#108 = APPLICATION_PROTOCOL_DEFINITION ( 'draft international standard', 'automotive_design', 1998, #41 ) ;
#109 = MECHANICAL_DESIGN_GEOMETRIC_PRESENTATION_REPRESENTATION (  '', ( #10 ), #111 ) ;
#110 = PRODUCT_DEFINITION_FORMATION_WITH_SPECIFIED_SOURCE ( 'ANY', '', #69, .NOT_KNOWN. ) ;
#111 =( GEOMETRIC_REPRESENTATION_CONTEXT ( 3 ) GLOBAL_UNCERTAINTY_ASSIGNED_CONTEXT ( ( #33 ) ) GLOBAL_UNIT_ASSIGNED_CONTEXT ( ( #40, #18, #122 ) ) REPRESENTATION_CONTEXT ( 'NONE', 'WORKASPACE' ) );
#112 = ORIENTED_EDGE ( 'NONE', *, *, #121, .F. ) ;
#113 = ORIENTED_EDGE ( 'NONE', *, *, #121, .T. ) ;
#114 = CLOSED_SHELL ( 'NONE', ( #126, #78, #132, #14 ) ) ;
#115 = CYLINDRICAL_SURFACE ( 'NONE', #49, 4.200000000000000178 ) ;
#116 = FACE_OUTER_BOUND ( 'NONE', #50, .T. ) ;
#117 = DIRECTION ( 'NONE',  ( -0.000000000000000000, -0.000000000000000000, -1.000000000000000000 ) ) ;
#118 = PRODUCT_DEFINITION ( 'UNKNOWN', '', #110, #8 ) ;
#119 = DIRECTION ( 'NONE',  ( 0.000000000000000000, 0.000000000000000000, 1.000000000000000000 ) ) ;
#120 = AXIS2_PLACEMENT_3D ( 'NONE', #82, #117, #63 ) ;
#121 = EDGE_CURVE ( 'NONE', #93, #93, #105, .T. ) ;
#122 =( NAMED_UNIT ( * ) SI_UNIT ( $, .STERADIAN. ) SOLID_ANGLE_UNIT ( ) );
#123 = AXIS2_PLACEMENT_3D ( 'NONE', #129, #60, #5 ) ;
#124 = EDGE_CURVE ( 'NONE', #36, #36, #13, .T. ) ;
#125 = EDGE_LOOP ( 'NONE', ( #99 ) ) ;
#126 = ADVANCED_FACE ( 'NONE', ( #64, #57 ), #51, .T. ) ;
#127 = DIRECTION ( 'NONE',  ( 0.000000000000000000, 0.000000000000000000, 1.000000000000000000 ) ) ;
#128 = VERTEX_POINT ( 'NONE', #19 ) ;
#129 = CARTESIAN_POINT ( 'NONE',  ( 0.000000000000000000, 0.000000000000000000, -0.8000000000000000444 ) ) ;
#130 = SHAPE_DEFINITION_REPRESENTATION ( #91, #54 ) ;
#131 = EDGE_CURVE ( 'NONE', #106, #106, #97, .T. ) ;
#132 = ADVANCED_FACE ( 'NONE', ( #116, #90 ), #94, .T. ) ;
#133 = STYLED_ITEM ( 'NONE', ( #76 ), #54 ) ;
#134 = DIRECTION ( 'NONE',  ( -1.000000000000000000, 0.000000000000000000, 0.000000000000000000 ) ) ;
ENDSEC;
END-ISO-10303-21;
