ISO-10303-21;
HEADER;
FILE_DESCRIPTION (( 'STEP AP214' ),
    '1' );
FILE_NAME ('76.05.05.0002.step',
    '2021-04-02T17:37:08',
    ( '' ),
    ( '' ),
    'SwSTEP 2.0',
    'SolidWorks 2021',
    '' );
FILE_SCHEMA (( 'AUTOMOTIVE_DESIGN' ));
ENDSEC;

DATA;
#1 = CARTESIAN_POINT ( 'NONE',  ( 0.000000000000000000, 0.000000000000000000, 0.8000000000000000444 ) ) ;
#2 = FACE_OUTER_BOUND ( 'NONE', #37, .T. ) ;
#3 = PRESENTATION_STYLE_ASSIGNMENT (( #55 ) ) ;
#4 = APPLICATION_PROTOCOL_DEFINITION ( 'draft international standard', 'automotive_design', 1998, #47 ) ;
#5 = EDGE_CURVE ( 'NONE', #82, #82, #96, .T. ) ;
#6 = ADVANCED_FACE ( 'NONE', ( #94, #92 ), #127, .T. ) ;
#7 = EDGE_LOOP ( 'NONE', ( #46 ) ) ;
#8 = EDGE_CURVE ( 'NONE', #104, #104, #54, .T. ) ;
#9 = DIRECTION ( 'NONE',  ( 1.000000000000000000, 0.000000000000000000, 0.000000000000000000 ) ) ;
#10 = VERTEX_POINT ( 'NONE', #11 ) ;
#11 = CARTESIAN_POINT ( 'NONE',  ( 3.200000000000000178, 0.000000000000000000, 0.8000000000000000444 ) ) ;
#12 = ADVANCED_FACE ( 'NONE', ( #2, #42 ), #83, .T. ) ;
#13 = EDGE_CURVE ( 'NONE', #17, #17, #79, .T. ) ;
#14 = EDGE_LOOP ( 'NONE', ( #24 ) ) ;
#15 = AXIS2_PLACEMENT_3D ( 'NONE', #118, #61, #32 ) ;
#16 = CARTESIAN_POINT ( 'NONE',  ( 0.000000000000000000, 0.000000000000000000, 0.8000000000000000444 ) ) ;
#17 = VERTEX_POINT ( 'NONE', #65 ) ;
#18 = PRODUCT_DEFINITION_CONTEXT ( 'detailed design', #109, 'design' ) ;
#19 = SURFACE_STYLE_FILL_AREA ( #31 ) ;
#20 = CARTESIAN_POINT ( 'NONE',  ( 5.500000000000000000, 0.000000000000000000, -0.8000000000000000444 ) ) ;
#21 = PLANE ( 'NONE',  #15 ) ;
#22 = UNCERTAINTY_MEASURE_WITH_UNIT (LENGTH_MEASURE( 1.000000000000000082E-05 ), #43, 'distance_accuracy_value', 'NONE');
#23 = ADVANCED_FACE ( 'NONE', ( #30, #49 ), #70, .F. ) ;
#24 = ORIENTED_EDGE ( 'NONE', *, *, #8, .T. ) ;
#25 = PRODUCT_DEFINITION ( 'UNKNOWN', '', #112, #18 ) ;
#26 = AXIS2_PLACEMENT_3D ( 'NONE', #95, #51, #69 ) ;
#27 = ORIENTED_EDGE ( 'NONE', *, *, #129, .F. ) ;
#28 = DIRECTION ( 'NONE',  ( -0.000000000000000000, -0.000000000000000000, -1.000000000000000000 ) ) ;
#29 = SURFACE_SIDE_STYLE ('',( #19 ) ) ;
#30 = FACE_OUTER_BOUND ( 'NONE', #56, .T. ) ;
#31 = FILL_AREA_STYLE ('',( #93 ) ) ;
#32 = DIRECTION ( 'NONE',  ( 1.000000000000000000, 0.000000000000000000, -0.000000000000000000 ) ) ;
#33 =( NAMED_UNIT ( * ) SI_UNIT ( $, .STERADIAN. ) SOLID_ANGLE_UNIT ( ) );
#34 = MANIFOLD_SOLID_BREP ( 'Boss-Extrude1', #98 ) ;
#35 = EDGE_LOOP ( 'NONE', ( #53 ) ) ;
#36 = AXIS2_PLACEMENT_3D ( 'NONE', #1, #130, #57 ) ;
#37 = EDGE_LOOP ( 'NONE', ( #100 ) ) ;
#38 = PRESENTATION_LAYER_ASSIGNMENT (  '', '', ( #99 ) ) ;
#39 = DIRECTION ( 'NONE',  ( 0.000000000000000000, 0.000000000000000000, 1.000000000000000000 ) ) ;
#40 = FACE_BOUND ( 'NONE', #124, .T. ) ;
#41 = PRODUCT_CONTEXT ( 'NONE', #47, 'mechanical' ) ;
#42 = FACE_BOUND ( 'NONE', #133, .T. ) ;
#43 =( LENGTH_UNIT ( ) NAMED_UNIT ( * ) SI_UNIT ( .MILLI., .METRE. ) );
#44 = DIRECTION ( 'NONE',  ( 1.000000000000000000, 0.000000000000000000, 0.000000000000000000 ) ) ;
#45 = AXIS2_PLACEMENT_3D ( 'NONE', #128, #28, #116 ) ;
#46 = ORIENTED_EDGE ( 'NONE', *, *, #5, .F. ) ;
#47 = APPLICATION_CONTEXT ( 'automotive_design' ) ;
#48 =( GEOMETRIC_REPRESENTATION_CONTEXT ( 3 ) GLOBAL_UNCERTAINTY_ASSIGNED_CONTEXT ( ( #50 ) ) GLOBAL_UNIT_ASSIGNED_CONTEXT ( ( #110, #84, #108 ) ) REPRESENTATION_CONTEXT ( 'NONE', 'WORKASPACE' ) );
#49 = FACE_OUTER_BOUND ( 'NONE', #7, .T. ) ;
#50 = UNCERTAINTY_MEASURE_WITH_UNIT (LENGTH_MEASURE( 1.000000000000000082E-05 ), #110, 'distance_accuracy_value', 'NONE');
#51 = DIRECTION ( 'NONE',  ( 0.000000000000000000, 0.000000000000000000, 1.000000000000000000 ) ) ;
#52 = DIRECTION ( 'NONE',  ( -0.000000000000000000, -0.000000000000000000, -1.000000000000000000 ) ) ;
#53 = ORIENTED_EDGE ( 'NONE', *, *, #8, .F. ) ;
#54 = CIRCLE ( 'NONE', #125, 5.500000000000000000 ) ;
#55 = SURFACE_STYLE_USAGE ( .BOTH. , #59 ) ;
#56 = EDGE_LOOP ( 'NONE', ( #66 ) ) ;
#57 = DIRECTION ( 'NONE',  ( 1.000000000000000000, 0.000000000000000000, 0.000000000000000000 ) ) ;
#58 = MECHANICAL_DESIGN_GEOMETRIC_PRESENTATION_REPRESENTATION (  '', ( #111 ), #67 ) ;
#59 = SURFACE_SIDE_STYLE ('',( #75 ) ) ;
#60 = DIRECTION ( 'NONE',  ( 0.000000000000000000, 0.000000000000000000, 1.000000000000000000 ) ) ;
#61 = DIRECTION ( 'NONE',  ( 0.000000000000000000, 0.000000000000000000, 1.000000000000000000 ) ) ;
#62 = DIRECTION ( 'NONE',  ( -1.000000000000000000, 0.000000000000000000, 0.000000000000000000 ) ) ;
#63 = AXIS2_PLACEMENT_3D ( 'NONE', #16, #60, #74 ) ;
#64 = ADVANCED_FACE ( 'NONE', ( #77, #40 ), #21, .F. ) ;
#65 = CARTESIAN_POINT ( 'NONE',  ( 5.500000000000000000, 0.000000000000000000, 0.8000000000000000444 ) ) ;
#66 = ORIENTED_EDGE ( 'NONE', *, *, #129, .T. ) ;
#67 =( GEOMETRIC_REPRESENTATION_CONTEXT ( 3 ) GLOBAL_UNCERTAINTY_ASSIGNED_CONTEXT ( ( #87 ) ) GLOBAL_UNIT_ASSIGNED_CONTEXT ( ( #117, #72, #115 ) ) REPRESENTATION_CONTEXT ( 'NONE', 'WORKASPACE' ) );
#68 = PRODUCT ( '76.05.05.0002', '76.05.05.0002', '', ( #41 ) ) ;
#69 = DIRECTION ( 'NONE',  ( 1.000000000000000000, 0.000000000000000000, 0.000000000000000000 ) ) ;
#70 = CYLINDRICAL_SURFACE ( 'NONE', #102, 3.200000000000000178 ) ;
#71 = PRESENTATION_STYLE_ASSIGNMENT (( #88 ) ) ;
#72 =( NAMED_UNIT ( * ) PLANE_ANGLE_UNIT ( ) SI_UNIT ( $, .RADIAN. ) );
#73 = ORIENTED_EDGE ( 'NONE', *, *, #13, .F. ) ;
#74 = DIRECTION ( 'NONE',  ( 1.000000000000000000, 0.000000000000000000, -0.000000000000000000 ) ) ;
#75 = SURFACE_STYLE_FILL_AREA ( #122 ) ;
#76 = PRODUCT_DEFINITION_SHAPE ( 'NONE', 'NONE',  #25 ) ;
#77 = FACE_OUTER_BOUND ( 'NONE', #35, .T. ) ;
#78 = ORIENTED_EDGE ( 'NONE', *, *, #5, .T. ) ;
#79 = CIRCLE ( 'NONE', #36, 5.500000000000000000 ) ;
#80 = DIRECTION ( 'NONE',  ( 0.000000000000000000, 0.000000000000000000, 1.000000000000000000 ) ) ;
#81 = DIRECTION ( 'NONE',  ( 1.000000000000000000, 0.000000000000000000, 0.000000000000000000 ) ) ;
#82 = VERTEX_POINT ( 'NONE', #97 ) ;
#83 = PLANE ( 'NONE',  #63 ) ;
#84 =( NAMED_UNIT ( * ) PLANE_ANGLE_UNIT ( ) SI_UNIT ( $, .RADIAN. ) );
#85 = SHAPE_DEFINITION_REPRESENTATION ( #76, #90 ) ;
#86 =( NAMED_UNIT ( * ) PLANE_ANGLE_UNIT ( ) SI_UNIT ( $, .RADIAN. ) );
#87 = UNCERTAINTY_MEASURE_WITH_UNIT (LENGTH_MEASURE( 1.000000000000000082E-05 ), #117, 'distance_accuracy_value', 'NONE');
#88 = SURFACE_STYLE_USAGE ( .BOTH. , #29 ) ;
#89 = PRESENTATION_LAYER_ASSIGNMENT (  '', '', ( #111 ) ) ;
#90 = ADVANCED_BREP_SHAPE_REPRESENTATION ( '76.05.05.0002', ( #34, #26 ), #48 ) ;
#91 = AXIS2_PLACEMENT_3D ( 'NONE', #119, #131, #44 ) ;
#92 = FACE_OUTER_BOUND ( 'NONE', #14, .T. ) ;
#93 = FILL_AREA_STYLE_COLOUR ( '', #123 ) ;
#94 = FACE_OUTER_BOUND ( 'NONE', #113, .T. ) ;
#95 = CARTESIAN_POINT ( 'NONE',  ( 0.000000000000000000, 0.000000000000000000, 0.000000000000000000 ) ) ;
#96 = CIRCLE ( 'NONE', #132, 3.200000000000000178 ) ;
#97 = CARTESIAN_POINT ( 'NONE',  ( 3.200000000000000178, 0.000000000000000000, -0.8000000000000000444 ) ) ;
#98 = CLOSED_SHELL ( 'NONE', ( #12, #64, #6, #23 ) ) ;
#99 = STYLED_ITEM ( 'NONE', ( #3 ), #34 ) ;
#100 = ORIENTED_EDGE ( 'NONE', *, *, #13, .T. ) ;
#101 =( GEOMETRIC_REPRESENTATION_CONTEXT ( 3 ) GLOBAL_UNCERTAINTY_ASSIGNED_CONTEXT ( ( #22 ) ) GLOBAL_UNIT_ASSIGNED_CONTEXT ( ( #43, #86, #33 ) ) REPRESENTATION_CONTEXT ( 'NONE', 'WORKASPACE' ) );
#102 = AXIS2_PLACEMENT_3D ( 'NONE', #103, #52, #62 ) ;
#103 = CARTESIAN_POINT ( 'NONE',  ( 0.000000000000000000, 0.000000000000000000, 0.8000000000000000444 ) ) ;
#104 = VERTEX_POINT ( 'NONE', #20 ) ;
#105 = CARTESIAN_POINT ( 'NONE',  ( 0.000000000000000000, 0.000000000000000000, -0.8000000000000000444 ) ) ;
#106 = FILL_AREA_STYLE_COLOUR ( '', #120 ) ;
#107 = MECHANICAL_DESIGN_GEOMETRIC_PRESENTATION_REPRESENTATION (  '', ( #99 ), #101 ) ;
#108 =( NAMED_UNIT ( * ) SI_UNIT ( $, .STERADIAN. ) SOLID_ANGLE_UNIT ( ) );
#109 = APPLICATION_CONTEXT ( 'automotive_design' ) ;
#110 =( LENGTH_UNIT ( ) NAMED_UNIT ( * ) SI_UNIT ( .MILLI., .METRE. ) );
#111 = STYLED_ITEM ( 'NONE', ( #71 ), #90 ) ;
#112 = PRODUCT_DEFINITION_FORMATION_WITH_SPECIFIED_SOURCE ( 'ANY', '', #68, .NOT_KNOWN. ) ;
#113 = EDGE_LOOP ( 'NONE', ( #73 ) ) ;
#114 = CARTESIAN_POINT ( 'NONE',  ( 0.000000000000000000, 0.000000000000000000, -0.8000000000000000444 ) ) ;
#115 =( NAMED_UNIT ( * ) SI_UNIT ( $, .STERADIAN. ) SOLID_ANGLE_UNIT ( ) );
#116 = DIRECTION ( 'NONE',  ( -1.000000000000000000, 0.000000000000000000, 0.000000000000000000 ) ) ;
#117 =( LENGTH_UNIT ( ) NAMED_UNIT ( * ) SI_UNIT ( .MILLI., .METRE. ) );
#118 = CARTESIAN_POINT ( 'NONE',  ( 0.000000000000000000, 0.000000000000000000, -0.8000000000000000444 ) ) ;
#119 = CARTESIAN_POINT ( 'NONE',  ( 0.000000000000000000, 0.000000000000000000, 0.8000000000000000444 ) ) ;
#120 = COLOUR_RGB ( '',0.7764705882352941346, 0.7568627450980391913, 0.7372549019607843590 ) ;
#121 = PRODUCT_RELATED_PRODUCT_CATEGORY ( 'part', '', ( #68 ) ) ;
#122 = FILL_AREA_STYLE ('',( #106 ) ) ;
#123 = COLOUR_RGB ( '',0.7764705882352941346, 0.7568627450980391913, 0.7372549019607843590 ) ;
#124 = EDGE_LOOP ( 'NONE', ( #78 ) ) ;
#125 = AXIS2_PLACEMENT_3D ( 'NONE', #114, #80, #9 ) ;
#126 = APPLICATION_PROTOCOL_DEFINITION ( 'draft international standard', 'automotive_design', 1998, #109 ) ;
#127 = CYLINDRICAL_SURFACE ( 'NONE', #45, 5.500000000000000000 ) ;
#128 = CARTESIAN_POINT ( 'NONE',  ( 0.000000000000000000, 0.000000000000000000, 0.8000000000000000444 ) ) ;
#129 = EDGE_CURVE ( 'NONE', #10, #10, #134, .T. ) ;
#130 = DIRECTION ( 'NONE',  ( 0.000000000000000000, 0.000000000000000000, 1.000000000000000000 ) ) ;
#131 = DIRECTION ( 'NONE',  ( 0.000000000000000000, 0.000000000000000000, 1.000000000000000000 ) ) ;
#132 = AXIS2_PLACEMENT_3D ( 'NONE', #105, #39, #81 ) ;
#133 = EDGE_LOOP ( 'NONE', ( #27 ) ) ;
#134 = CIRCLE ( 'NONE', #91, 3.200000000000000178 ) ;
ENDSEC;
END-ISO-10303-21;
