ISO-10303-21;
HEADER;
FILE_DESCRIPTION (( 'STEP AP214' ),
    '1' );
FILE_NAME ('76.05.05.0001.step',
    '2021-04-02T17:37:06',
    ( '' ),
    ( '' ),
    'SwSTEP 2.0',
    'SolidWorks 2021',
    '' );
FILE_SCHEMA (( 'AUTOMOTIVE_DESIGN' ));
ENDSEC;

DATA;
#1 = CARTESIAN_POINT ( 'NONE',  ( 0.000000000000000000, 0.000000000000000000, 0.5000000000000000000 ) ) ;
#2 = AXIS2_PLACEMENT_3D ( 'NONE', #101, #11, #132 ) ;
#3 = APPLICATION_PROTOCOL_DEFINITION ( 'draft international standard', 'automotive_design', 1998, #118 ) ;
#4 = FILL_AREA_STYLE ('',( #63 ) ) ;
#5 = CARTESIAN_POINT ( 'NONE',  ( 4.750000000000000000, 0.000000000000000000, -0.5000000000000000000 ) ) ;
#6 = ORIENTED_EDGE ( 'NONE', *, *, #110, .T. ) ;
#7 = SURFACE_SIDE_STYLE ('',( #128 ) ) ;
#8 = ORIENTED_EDGE ( 'NONE', *, *, #80, .F. ) ;
#9 = CYLINDRICAL_SURFACE ( 'NONE', #38, 4.750000000000000000 ) ;
#10 =( NAMED_UNIT ( * ) PLANE_ANGLE_UNIT ( ) SI_UNIT ( $, .RADIAN. ) );
#11 = DIRECTION ( 'NONE',  ( 0.000000000000000000, 0.000000000000000000, 1.000000000000000000 ) ) ;
#12 = AXIS2_PLACEMENT_3D ( 'NONE', #60, #131, #104 ) ;
#13 = ADVANCED_BREP_SHAPE_REPRESENTATION ( '76.05.05.0001', ( #130, #70 ), #96 ) ;
#14 = FACE_OUTER_BOUND ( 'NONE', #78, .T. ) ;
#15 = FACE_OUTER_BOUND ( 'NONE', #112, .T. ) ;
#16 = DIRECTION ( 'NONE',  ( 0.000000000000000000, 0.000000000000000000, 1.000000000000000000 ) ) ;
#17 = CYLINDRICAL_SURFACE ( 'NONE', #106, 2.649999999999999911 ) ;
#18 = DIRECTION ( 'NONE',  ( 1.000000000000000000, 0.000000000000000000, 0.000000000000000000 ) ) ;
#19 = EDGE_LOOP ( 'NONE', ( #34 ) ) ;
#20 = PLANE ( 'NONE',  #2 ) ;
#21 = CARTESIAN_POINT ( 'NONE',  ( 0.000000000000000000, 0.000000000000000000, 0.000000000000000000 ) ) ;
#22 = DIRECTION ( 'NONE',  ( 0.000000000000000000, 0.000000000000000000, 1.000000000000000000 ) ) ;
#23 = ADVANCED_FACE ( 'NONE', ( #91, #57 ), #9, .T. ) ;
#24 =( NAMED_UNIT ( * ) PLANE_ANGLE_UNIT ( ) SI_UNIT ( $, .RADIAN. ) );
#25 = APPLICATION_PROTOCOL_DEFINITION ( 'draft international standard', 'automotive_design', 1998, #108 ) ;
#26 = AXIS2_PLACEMENT_3D ( 'NONE', #133, #22, #33 ) ;
#27 = ORIENTED_EDGE ( 'NONE', *, *, #54, .T. ) ;
#28 = EDGE_LOOP ( 'NONE', ( #6 ) ) ;
#29 = CIRCLE ( 'NONE', #26, 4.750000000000000000 ) ;
#30 = PRODUCT_RELATED_PRODUCT_CATEGORY ( 'part', '', ( #64 ) ) ;
#31 = ADVANCED_FACE ( 'NONE', ( #114, #58 ), #20, .F. ) ;
#32 = FACE_OUTER_BOUND ( 'NONE', #89, .T. ) ;
#33 = DIRECTION ( 'NONE',  ( 1.000000000000000000, 0.000000000000000000, 0.000000000000000000 ) ) ;
#34 = ORIENTED_EDGE ( 'NONE', *, *, #54, .F. ) ;
#35 = EDGE_LOOP ( 'NONE', ( #56 ) ) ;
#36 = DIRECTION ( 'NONE',  ( 0.000000000000000000, 0.000000000000000000, 1.000000000000000000 ) ) ;
#37 = COLOUR_RGB ( '',0.7764705882352941346, 0.7568627450980391913, 0.7372549019607843590 ) ;
#38 = AXIS2_PLACEMENT_3D ( 'NONE', #47, #93, #67 ) ;
#39 = CARTESIAN_POINT ( 'NONE',  ( 0.000000000000000000, 0.000000000000000000, 0.5000000000000000000 ) ) ;
#40 = DIRECTION ( 'NONE',  ( -0.000000000000000000, -0.000000000000000000, -1.000000000000000000 ) ) ;
#41 = CLOSED_SHELL ( 'NONE', ( #66, #31, #23, #84 ) ) ;
#42 = PRODUCT_CONTEXT ( 'NONE', #118, 'mechanical' ) ;
#43 = MECHANICAL_DESIGN_GEOMETRIC_PRESENTATION_REPRESENTATION (  '', ( #115 ), #119 ) ;
#44 = EDGE_LOOP ( 'NONE', ( #117 ) ) ;
#45 = SURFACE_STYLE_USAGE ( .BOTH. , #7 ) ;
#46 = ORIENTED_EDGE ( 'NONE', *, *, #103, .T. ) ;
#47 = CARTESIAN_POINT ( 'NONE',  ( 0.000000000000000000, 0.000000000000000000, 0.5000000000000000000 ) ) ;
#48 = UNCERTAINTY_MEASURE_WITH_UNIT (LENGTH_MEASURE( 1.000000000000000082E-05 ), #113, 'distance_accuracy_value', 'NONE');
#49 = DIRECTION ( 'NONE',  ( -1.000000000000000000, 0.000000000000000000, 0.000000000000000000 ) ) ;
#50 =( LENGTH_UNIT ( ) NAMED_UNIT ( * ) SI_UNIT ( .MILLI., .METRE. ) );
#51 =( NAMED_UNIT ( * ) SI_UNIT ( $, .STERADIAN. ) SOLID_ANGLE_UNIT ( ) );
#52 =( NAMED_UNIT ( * ) PLANE_ANGLE_UNIT ( ) SI_UNIT ( $, .RADIAN. ) );
#53 =( LENGTH_UNIT ( ) NAMED_UNIT ( * ) SI_UNIT ( .MILLI., .METRE. ) );
#54 = EDGE_CURVE ( 'NONE', #124, #124, #125, .T. ) ;
#55 = PRODUCT_DEFINITION_CONTEXT ( 'detailed design', #108, 'design' ) ;
#56 = ORIENTED_EDGE ( 'NONE', *, *, #80, .T. ) ;
#57 = FACE_OUTER_BOUND ( 'NONE', #28, .T. ) ;
#58 = FACE_BOUND ( 'NONE', #35, .T. ) ;
#59 = SURFACE_STYLE_USAGE ( .BOTH. , #122 ) ;
#60 = CARTESIAN_POINT ( 'NONE',  ( 0.000000000000000000, 0.000000000000000000, 0.5000000000000000000 ) ) ;
#61 = DIRECTION ( 'NONE',  ( 0.000000000000000000, 0.000000000000000000, 1.000000000000000000 ) ) ;
#62 =( NAMED_UNIT ( * ) SI_UNIT ( $, .STERADIAN. ) SOLID_ANGLE_UNIT ( ) );
#63 = FILL_AREA_STYLE_COLOUR ( '', #37 ) ;
#64 = PRODUCT ( '76.05.05.0001', '76.05.05.0001', '', ( #42 ) ) ;
#65 = MECHANICAL_DESIGN_GEOMETRIC_PRESENTATION_REPRESENTATION (  '', ( #74 ), #95 ) ;
#66 = ADVANCED_FACE ( 'NONE', ( #32, #72 ), #85, .T. ) ;
#67 = DIRECTION ( 'NONE',  ( -1.000000000000000000, 0.000000000000000000, 0.000000000000000000 ) ) ;
#68 = UNCERTAINTY_MEASURE_WITH_UNIT (LENGTH_MEASURE( 1.000000000000000082E-05 ), #53, 'distance_accuracy_value', 'NONE');
#69 =( NAMED_UNIT ( * ) SI_UNIT ( $, .STERADIAN. ) SOLID_ANGLE_UNIT ( ) );
#70 = AXIS2_PLACEMENT_3D ( 'NONE', #21, #36, #18 ) ;
#71 = CARTESIAN_POINT ( 'NONE',  ( 4.750000000000000000, 0.000000000000000000, 0.5000000000000000000 ) ) ;
#72 = FACE_BOUND ( 'NONE', #44, .T. ) ;
#73 = AXIS2_PLACEMENT_3D ( 'NONE', #97, #61, #123 ) ;
#74 = STYLED_ITEM ( 'NONE', ( #90 ), #13 ) ;
#75 = PRESENTATION_STYLE_ASSIGNMENT (( #59 ) ) ;
#76 = FILL_AREA_STYLE_COLOUR ( '', #99 ) ;
#77 = PRODUCT_DEFINITION_SHAPE ( 'NONE', 'NONE',  #88 ) ;
#78 = EDGE_LOOP ( 'NONE', ( #46 ) ) ;
#79 = ORIENTED_EDGE ( 'NONE', *, *, #110, .F. ) ;
#80 = EDGE_CURVE ( 'NONE', #82, #82, #109, .T. ) ;
#81 = PRODUCT_DEFINITION_FORMATION_WITH_SPECIFIED_SOURCE ( 'ANY', '', #64, .NOT_KNOWN. ) ;
#82 = VERTEX_POINT ( 'NONE', #126 ) ;
#83 = CARTESIAN_POINT ( 'NONE',  ( 0.000000000000000000, 0.000000000000000000, -0.5000000000000000000 ) ) ;
#84 = ADVANCED_FACE ( 'NONE', ( #14, #15 ), #17, .F. ) ;
#85 = PLANE ( 'NONE',  #12 ) ;
#86 = AXIS2_PLACEMENT_3D ( 'NONE', #39, #98, #116 ) ;
#87 = VERTEX_POINT ( 'NONE', #5 ) ;
#88 = PRODUCT_DEFINITION ( 'UNKNOWN', '', #81, #55 ) ;
#89 = EDGE_LOOP ( 'NONE', ( #27 ) ) ;
#90 = PRESENTATION_STYLE_ASSIGNMENT (( #45 ) ) ;
#91 = FACE_OUTER_BOUND ( 'NONE', #19, .T. ) ;
#92 = SHAPE_DEFINITION_REPRESENTATION ( #77, #13 ) ;
#93 = DIRECTION ( 'NONE',  ( -0.000000000000000000, -0.000000000000000000, -1.000000000000000000 ) ) ;
#94 = AXIS2_PLACEMENT_3D ( 'NONE', #83, #16, #107 ) ;
#95 =( GEOMETRIC_REPRESENTATION_CONTEXT ( 3 ) GLOBAL_UNCERTAINTY_ASSIGNED_CONTEXT ( ( #48 ) ) GLOBAL_UNIT_ASSIGNED_CONTEXT ( ( #113, #10, #69 ) ) REPRESENTATION_CONTEXT ( 'NONE', 'WORKASPACE' ) );
#96 =( GEOMETRIC_REPRESENTATION_CONTEXT ( 3 ) GLOBAL_UNCERTAINTY_ASSIGNED_CONTEXT ( ( #68 ) ) GLOBAL_UNIT_ASSIGNED_CONTEXT ( ( #53, #52, #62 ) ) REPRESENTATION_CONTEXT ( 'NONE', 'WORKASPACE' ) );
#97 = CARTESIAN_POINT ( 'NONE',  ( 0.000000000000000000, 0.000000000000000000, 0.5000000000000000000 ) ) ;
#98 = DIRECTION ( 'NONE',  ( 0.000000000000000000, 0.000000000000000000, 1.000000000000000000 ) ) ;
#99 = COLOUR_RGB ( '',0.7764705882352941346, 0.7568627450980391913, 0.7372549019607843590 ) ;
#100 = VERTEX_POINT ( 'NONE', #111 ) ;
#101 = CARTESIAN_POINT ( 'NONE',  ( 0.000000000000000000, 0.000000000000000000, -0.5000000000000000000 ) ) ;
#102 = PRESENTATION_LAYER_ASSIGNMENT (  '', '', ( #115 ) ) ;
#103 = EDGE_CURVE ( 'NONE', #100, #100, #121, .T. ) ;
#104 = DIRECTION ( 'NONE',  ( 1.000000000000000000, 0.000000000000000000, -0.000000000000000000 ) ) ;
#105 = FILL_AREA_STYLE ('',( #76 ) ) ;
#106 = AXIS2_PLACEMENT_3D ( 'NONE', #1, #40, #49 ) ;
#107 = DIRECTION ( 'NONE',  ( 1.000000000000000000, 0.000000000000000000, 0.000000000000000000 ) ) ;
#108 = APPLICATION_CONTEXT ( 'automotive_design' ) ;
#109 = CIRCLE ( 'NONE', #94, 2.649999999999999911 ) ;
#110 = EDGE_CURVE ( 'NONE', #87, #87, #29, .T. ) ;
#111 = CARTESIAN_POINT ( 'NONE',  ( 2.649999999999999911, 0.000000000000000000, 0.5000000000000000000 ) ) ;
#112 = EDGE_LOOP ( 'NONE', ( #8 ) ) ;
#113 =( LENGTH_UNIT ( ) NAMED_UNIT ( * ) SI_UNIT ( .MILLI., .METRE. ) );
#114 = FACE_OUTER_BOUND ( 'NONE', #120, .T. ) ;
#115 = STYLED_ITEM ( 'NONE', ( #75 ), #130 ) ;
#116 = DIRECTION ( 'NONE',  ( 1.000000000000000000, 0.000000000000000000, 0.000000000000000000 ) ) ;
#117 = ORIENTED_EDGE ( 'NONE', *, *, #103, .F. ) ;
#118 = APPLICATION_CONTEXT ( 'automotive_design' ) ;
#119 =( GEOMETRIC_REPRESENTATION_CONTEXT ( 3 ) GLOBAL_UNCERTAINTY_ASSIGNED_CONTEXT ( ( #127 ) ) GLOBAL_UNIT_ASSIGNED_CONTEXT ( ( #50, #24, #51 ) ) REPRESENTATION_CONTEXT ( 'NONE', 'WORKASPACE' ) );
#120 = EDGE_LOOP ( 'NONE', ( #79 ) ) ;
#121 = CIRCLE ( 'NONE', #86, 2.649999999999999911 ) ;
#122 = SURFACE_SIDE_STYLE ('',( #134 ) ) ;
#123 = DIRECTION ( 'NONE',  ( 1.000000000000000000, 0.000000000000000000, 0.000000000000000000 ) ) ;
#124 = VERTEX_POINT ( 'NONE', #71 ) ;
#125 = CIRCLE ( 'NONE', #73, 4.750000000000000000 ) ;
#126 = CARTESIAN_POINT ( 'NONE',  ( 2.649999999999999911, 0.000000000000000000, -0.5000000000000000000 ) ) ;
#127 = UNCERTAINTY_MEASURE_WITH_UNIT (LENGTH_MEASURE( 1.000000000000000082E-05 ), #50, 'distance_accuracy_value', 'NONE');
#128 = SURFACE_STYLE_FILL_AREA ( #4 ) ;
#129 = PRESENTATION_LAYER_ASSIGNMENT (  '', '', ( #74 ) ) ;
#130 = MANIFOLD_SOLID_BREP ( 'Boss-Extrude1', #41 ) ;
#131 = DIRECTION ( 'NONE',  ( 0.000000000000000000, 0.000000000000000000, 1.000000000000000000 ) ) ;
#132 = DIRECTION ( 'NONE',  ( 1.000000000000000000, 0.000000000000000000, -0.000000000000000000 ) ) ;
#133 = CARTESIAN_POINT ( 'NONE',  ( 0.000000000000000000, 0.000000000000000000, -0.5000000000000000000 ) ) ;
#134 = SURFACE_STYLE_FILL_AREA ( #105 ) ;
ENDSEC;
END-ISO-10303-21;
