ISO-10303-21;
HEADER;
FILE_DESCRIPTION (( 'STEP AP214' ),
    '1' );
FILE_NAME ('76.05.04.0013.step',
    '2021-04-02T17:37:05',
    ( '' ),
    ( '' ),
    'SwSTEP 2.0',
    'SolidWorks 2021',
    '' );
FILE_SCHEMA (( 'AUTOMOTIVE_DESIGN' ));
ENDSEC;

DATA;
#1 = CARTESIAN_POINT ( 'NONE',  ( 0.000000000000000000, 0.000000000000000000, 2.250000000000000000 ) ) ;
#2 = SURFACE_STYLE_FILL_AREA ( #94 ) ;
#3 = DIRECTION ( 'NONE',  ( 1.000000000000000000, 0.000000000000000000, -0.000000000000000000 ) ) ;
#4 =( NAMED_UNIT ( * ) PLANE_ANGLE_UNIT ( ) SI_UNIT ( $, .RADIAN. ) );
#5 = ORIENTED_EDGE ( 'NONE', *, *, #125, .F. ) ;
#6 =( NAMED_UNIT ( * ) SI_UNIT ( $, .STERADIAN. ) SOLID_ANGLE_UNIT ( ) );
#7 = ORIENTED_EDGE ( 'NONE', *, *, #32, .T. ) ;
#8 = PRODUCT_DEFINITION_CONTEXT ( 'detailed design', #9, 'design' ) ;
#9 = APPLICATION_CONTEXT ( 'automotive_design' ) ;
#10 = EDGE_LOOP ( 'NONE', ( #104 ) ) ;
#11 = UNCERTAINTY_MEASURE_WITH_UNIT (LENGTH_MEASURE( 1.000000000000000082E-05 ), #31, 'distance_accuracy_value', 'NONE');
#12 =( GEOMETRIC_REPRESENTATION_CONTEXT ( 3 ) GLOBAL_UNCERTAINTY_ASSIGNED_CONTEXT ( ( #60 ) ) GLOBAL_UNIT_ASSIGNED_CONTEXT ( ( #35, #101, #28 ) ) REPRESENTATION_CONTEXT ( 'NONE', 'WORKASPACE' ) );
#13 = SURFACE_STYLE_FILL_AREA ( #17 ) ;
#14 = CARTESIAN_POINT ( 'NONE',  ( 32.50000000000000000, 0.000000000000000000, -2.250000000000000000 ) ) ;
#15 = SURFACE_STYLE_USAGE ( .BOTH. , #113 ) ;
#16 = EDGE_LOOP ( 'NONE', ( #5 ) ) ;
#17 = FILL_AREA_STYLE ('',( #29 ) ) ;
#18 = PRODUCT_DEFINITION ( 'UNKNOWN', '', #84, #8 ) ;
#19 =( NAMED_UNIT ( * ) PLANE_ANGLE_UNIT ( ) SI_UNIT ( $, .RADIAN. ) );
#20 = ADVANCED_FACE ( 'NONE', ( #61, #47 ), #117, .F. ) ;
#21 = PLANE ( 'NONE',  #121 ) ;
#22 = DIRECTION ( 'NONE',  ( 1.000000000000000000, 0.000000000000000000, 0.000000000000000000 ) ) ;
#23 = PRESENTATION_STYLE_ASSIGNMENT (( #15 ) ) ;
#24 = AXIS2_PLACEMENT_3D ( 'NONE', #96, #41, #44 ) ;
#25 = ADVANCED_BREP_SHAPE_REPRESENTATION ( '76.05.04.0013', ( #45, #120 ), #12 ) ;
#26 = VERTEX_POINT ( 'NONE', #14 ) ;
#27 = ORIENTED_EDGE ( 'NONE', *, *, #32, .F. ) ;
#28 =( NAMED_UNIT ( * ) SI_UNIT ( $, .STERADIAN. ) SOLID_ANGLE_UNIT ( ) );
#29 = FILL_AREA_STYLE_COLOUR ( '', #92 ) ;
#30 = DIRECTION ( 'NONE',  ( 1.000000000000000000, 0.000000000000000000, 0.000000000000000000 ) ) ;
#31 =( LENGTH_UNIT ( ) NAMED_UNIT ( * ) SI_UNIT ( .MILLI., .METRE. ) );
#32 = EDGE_CURVE ( 'NONE', #77, #77, #74, .T. ) ;
#33 = DIRECTION ( 'NONE',  ( 0.000000000000000000, 0.000000000000000000, 1.000000000000000000 ) ) ;
#34 = PRODUCT_CONTEXT ( 'NONE', #40, 'mechanical' ) ;
#35 =( LENGTH_UNIT ( ) NAMED_UNIT ( * ) SI_UNIT ( .MILLI., .METRE. ) );
#36 = APPLICATION_PROTOCOL_DEFINITION ( 'draft international standard', 'automotive_design', 1998, #40 ) ;
#37 = CARTESIAN_POINT ( 'NONE',  ( 0.000000000000000000, 0.000000000000000000, 2.250000000000000000 ) ) ;
#38 = PRESENTATION_STYLE_ASSIGNMENT (( #132 ) ) ;
#39 = CARTESIAN_POINT ( 'NONE',  ( 0.000000000000000000, 0.000000000000000000, 0.000000000000000000 ) ) ;
#40 = APPLICATION_CONTEXT ( 'automotive_design' ) ;
#41 = DIRECTION ( 'NONE',  ( 0.000000000000000000, 0.000000000000000000, 1.000000000000000000 ) ) ;
#42 = DIRECTION ( 'NONE',  ( -0.000000000000000000, -0.000000000000000000, -1.000000000000000000 ) ) ;
#43 = MECHANICAL_DESIGN_GEOMETRIC_PRESENTATION_REPRESENTATION (  '', ( #128 ), #107 ) ;
#44 = DIRECTION ( 'NONE',  ( 1.000000000000000000, 0.000000000000000000, 0.000000000000000000 ) ) ;
#45 = MANIFOLD_SOLID_BREP ( 'Boss-Extrude1', #98 ) ;
#46 = EDGE_LOOP ( 'NONE', ( #64 ) ) ;
#47 = FACE_OUTER_BOUND ( 'NONE', #50, .T. ) ;
#48 = ORIENTED_EDGE ( 'NONE', *, *, #58, .T. ) ;
#49 = UNCERTAINTY_MEASURE_WITH_UNIT (LENGTH_MEASURE( 1.000000000000000082E-05 ), #67, 'distance_accuracy_value', 'NONE');
#50 = EDGE_LOOP ( 'NONE', ( #115 ) ) ;
#51 = DIRECTION ( 'NONE',  ( 0.000000000000000000, 0.000000000000000000, 1.000000000000000000 ) ) ;
#52 = EDGE_LOOP ( 'NONE', ( #48 ) ) ;
#53 =( NAMED_UNIT ( * ) SI_UNIT ( $, .STERADIAN. ) SOLID_ANGLE_UNIT ( ) );
#54 = CIRCLE ( 'NONE', #79, 18.64999999999999858 ) ;
#55 = STYLED_ITEM ( 'NONE', ( #23 ), #25 ) ;
#56 = CYLINDRICAL_SURFACE ( 'NONE', #124, 32.50000000000000000 ) ;
#57 = FACE_OUTER_BOUND ( 'NONE', #71, .T. ) ;
#58 = EDGE_CURVE ( 'NONE', #116, #116, #83, .T. ) ;
#59 = DIRECTION ( 'NONE',  ( 0.000000000000000000, 0.000000000000000000, 1.000000000000000000 ) ) ;
#60 = UNCERTAINTY_MEASURE_WITH_UNIT (LENGTH_MEASURE( 1.000000000000000082E-05 ), #35, 'distance_accuracy_value', 'NONE');
#61 = FACE_OUTER_BOUND ( 'NONE', #10, .T. ) ;
#62 = EDGE_LOOP ( 'NONE', ( #27 ) ) ;
#63 = ADVANCED_FACE ( 'NONE', ( #105, #123 ), #56, .T. ) ;
#64 = ORIENTED_EDGE ( 'NONE', *, *, #99, .F. ) ;
#65 = AXIS2_PLACEMENT_3D ( 'NONE', #75, #88, #3 ) ;
#66 = CARTESIAN_POINT ( 'NONE',  ( 0.000000000000000000, 0.000000000000000000, -2.250000000000000000 ) ) ;
#67 =( LENGTH_UNIT ( ) NAMED_UNIT ( * ) SI_UNIT ( .MILLI., .METRE. ) );
#68 = AXIS2_PLACEMENT_3D ( 'NONE', #91, #127, #108 ) ;
#69 = PRODUCT ( '76.05.04.0013', '76.05.04.0013', '', ( #34 ) ) ;
#70 = CARTESIAN_POINT ( 'NONE',  ( 32.50000000000000000, 0.000000000000000000, 2.250000000000000000 ) ) ;
#71 = EDGE_LOOP ( 'NONE', ( #7 ) ) ;
#72 = CIRCLE ( 'NONE', #119, 32.50000000000000000 ) ;
#73 = MECHANICAL_DESIGN_GEOMETRIC_PRESENTATION_REPRESENTATION (  '', ( #55 ), #100 ) ;
#74 = CIRCLE ( 'NONE', #110, 32.50000000000000000 ) ;
#75 = CARTESIAN_POINT ( 'NONE',  ( 0.000000000000000000, 0.000000000000000000, -2.250000000000000000 ) ) ;
#76 = APPLICATION_PROTOCOL_DEFINITION ( 'draft international standard', 'automotive_design', 1998, #9 ) ;
#77 = VERTEX_POINT ( 'NONE', #70 ) ;
#78 = DIRECTION ( 'NONE',  ( -1.000000000000000000, 0.000000000000000000, 0.000000000000000000 ) ) ;
#79 = AXIS2_PLACEMENT_3D ( 'NONE', #93, #89, #22 ) ;
#80 = CARTESIAN_POINT ( 'NONE',  ( 0.000000000000000000, 0.000000000000000000, 2.250000000000000000 ) ) ;
#81 = FACE_OUTER_BOUND ( 'NONE', #16, .T. ) ;
#82 = SHAPE_DEFINITION_REPRESENTATION ( #112, #25 ) ;
#83 = CIRCLE ( 'NONE', #24, 18.64999999999999858 ) ;
#84 = PRODUCT_DEFINITION_FORMATION_WITH_SPECIFIED_SOURCE ( 'ANY', '', #69, .NOT_KNOWN. ) ;
#85 = CARTESIAN_POINT ( 'NONE',  ( 18.64999999999999858, 0.000000000000000000, -2.250000000000000000 ) ) ;
#86 = PRESENTATION_LAYER_ASSIGNMENT (  '', '', ( #55 ) ) ;
#87 = FACE_BOUND ( 'NONE', #46, .T. ) ;
#88 = DIRECTION ( 'NONE',  ( 0.000000000000000000, 0.000000000000000000, 1.000000000000000000 ) ) ;
#89 = DIRECTION ( 'NONE',  ( 0.000000000000000000, 0.000000000000000000, 1.000000000000000000 ) ) ;
#90 = PRESENTATION_LAYER_ASSIGNMENT (  '', '', ( #128 ) ) ;
#91 = CARTESIAN_POINT ( 'NONE',  ( 0.000000000000000000, 0.000000000000000000, 2.250000000000000000 ) ) ;
#92 = COLOUR_RGB ( '',0.8274509803921568096, 0.8392156862745098200, 0.8274509803921568096 ) ;
#93 = CARTESIAN_POINT ( 'NONE',  ( 0.000000000000000000, 0.000000000000000000, 2.250000000000000000 ) ) ;
#94 = FILL_AREA_STYLE ('',( #103 ) ) ;
#95 = VERTEX_POINT ( 'NONE', #111 ) ;
#96 = CARTESIAN_POINT ( 'NONE',  ( 0.000000000000000000, 0.000000000000000000, -2.250000000000000000 ) ) ;
#97 = EDGE_LOOP ( 'NONE', ( #106 ) ) ;
#98 = CLOSED_SHELL ( 'NONE', ( #118, #133, #63, #20 ) ) ;
#99 = EDGE_CURVE ( 'NONE', #95, #95, #54, .T. ) ;
#100 =( GEOMETRIC_REPRESENTATION_CONTEXT ( 3 ) GLOBAL_UNCERTAINTY_ASSIGNED_CONTEXT ( ( #49 ) ) GLOBAL_UNIT_ASSIGNED_CONTEXT ( ( #67, #4, #6 ) ) REPRESENTATION_CONTEXT ( 'NONE', 'WORKASPACE' ) );
#101 =( NAMED_UNIT ( * ) PLANE_ANGLE_UNIT ( ) SI_UNIT ( $, .RADIAN. ) );
#102 = PLANE ( 'NONE',  #65 ) ;
#103 = FILL_AREA_STYLE_COLOUR ( '', #109 ) ;
#104 = ORIENTED_EDGE ( 'NONE', *, *, #99, .T. ) ;
#105 = FACE_OUTER_BOUND ( 'NONE', #62, .T. ) ;
#106 = ORIENTED_EDGE ( 'NONE', *, *, #125, .T. ) ;
#107 =( GEOMETRIC_REPRESENTATION_CONTEXT ( 3 ) GLOBAL_UNCERTAINTY_ASSIGNED_CONTEXT ( ( #11 ) ) GLOBAL_UNIT_ASSIGNED_CONTEXT ( ( #31, #19, #53 ) ) REPRESENTATION_CONTEXT ( 'NONE', 'WORKASPACE' ) );
#108 = DIRECTION ( 'NONE',  ( -1.000000000000000000, 0.000000000000000000, 0.000000000000000000 ) ) ;
#109 = COLOUR_RGB ( '',0.8274509803921568096, 0.8392156862745098200, 0.8274509803921568096 ) ;
#110 = AXIS2_PLACEMENT_3D ( 'NONE', #80, #59, #130 ) ;
#111 = CARTESIAN_POINT ( 'NONE',  ( 18.64999999999999858, 0.000000000000000000, 2.250000000000000000 ) ) ;
#112 = PRODUCT_DEFINITION_SHAPE ( 'NONE', 'NONE',  #18 ) ;
#113 = SURFACE_SIDE_STYLE ('',( #2 ) ) ;
#114 = DIRECTION ( 'NONE',  ( 1.000000000000000000, 0.000000000000000000, -0.000000000000000000 ) ) ;
#115 = ORIENTED_EDGE ( 'NONE', *, *, #58, .F. ) ;
#116 = VERTEX_POINT ( 'NONE', #85 ) ;
#117 = CYLINDRICAL_SURFACE ( 'NONE', #68, 18.64999999999999858 ) ;
#118 = ADVANCED_FACE ( 'NONE', ( #57, #87 ), #21, .T. ) ;
#119 = AXIS2_PLACEMENT_3D ( 'NONE', #66, #134, #126 ) ;
#120 = AXIS2_PLACEMENT_3D ( 'NONE', #39, #51, #30 ) ;
#121 = AXIS2_PLACEMENT_3D ( 'NONE', #37, #33, #114 ) ;
#122 = SURFACE_SIDE_STYLE ('',( #13 ) ) ;
#123 = FACE_OUTER_BOUND ( 'NONE', #97, .T. ) ;
#124 = AXIS2_PLACEMENT_3D ( 'NONE', #1, #42, #78 ) ;
#125 = EDGE_CURVE ( 'NONE', #26, #26, #72, .T. ) ;
#126 = DIRECTION ( 'NONE',  ( 1.000000000000000000, 0.000000000000000000, 0.000000000000000000 ) ) ;
#127 = DIRECTION ( 'NONE',  ( -0.000000000000000000, -0.000000000000000000, -1.000000000000000000 ) ) ;
#128 = STYLED_ITEM ( 'NONE', ( #38 ), #45 ) ;
#129 = FACE_BOUND ( 'NONE', #52, .T. ) ;
#130 = DIRECTION ( 'NONE',  ( 1.000000000000000000, 0.000000000000000000, 0.000000000000000000 ) ) ;
#131 = PRODUCT_RELATED_PRODUCT_CATEGORY ( 'part', '', ( #69 ) ) ;
#132 = SURFACE_STYLE_USAGE ( .BOTH. , #122 ) ;
#133 = ADVANCED_FACE ( 'NONE', ( #81, #129 ), #102, .F. ) ;
#134 = DIRECTION ( 'NONE',  ( 0.000000000000000000, 0.000000000000000000, 1.000000000000000000 ) ) ;
ENDSEC;
END-ISO-10303-21;
