ISO-10303-21;
HEADER;
FILE_DESCRIPTION (( 'STEP AP214' ),
    '1' );
FILE_NAME ('76.05.04.0012.step',
    '2021-04-02T17:37:04',
    ( '' ),
    ( '' ),
    'SwSTEP 2.0',
    'SolidWorks 2021',
    '' );
FILE_SCHEMA (( 'AUTOMOTIVE_DESIGN' ));
ENDSEC;

DATA;
#1 = DIRECTION ( 'NONE',  ( 1.000000000000000000, 0.000000000000000000, 0.000000000000000000 ) ) ;
#2 = EDGE_LOOP ( 'NONE', ( #59 ) ) ;
#3 = SURFACE_STYLE_USAGE ( .BOTH. , #120 ) ;
#4 = EDGE_CURVE ( 'NONE', #58, #58, #114, .T. ) ;
#5 = CIRCLE ( 'NONE', #41, 27.75000000000000000 ) ;
#6 = DIRECTION ( 'NONE',  ( -1.000000000000000000, 0.000000000000000000, 0.000000000000000000 ) ) ;
#7 = FACE_BOUND ( 'NONE', #71, .T. ) ;
#8 = CARTESIAN_POINT ( 'NONE',  ( 15.65000000000000036, 0.000000000000000000, -1.850000000000000089 ) ) ;
#9 = MECHANICAL_DESIGN_GEOMETRIC_PRESENTATION_REPRESENTATION (  '', ( #116 ), #75 ) ;
#10 = ORIENTED_EDGE ( 'NONE', *, *, #109, .T. ) ;
#11 = CARTESIAN_POINT ( 'NONE',  ( 0.000000000000000000, 0.000000000000000000, -1.850000000000000089 ) ) ;
#12 = FACE_OUTER_BOUND ( 'NONE', #14, .T. ) ;
#13 =( LENGTH_UNIT ( ) NAMED_UNIT ( * ) SI_UNIT ( .MILLI., .METRE. ) );
#14 = EDGE_LOOP ( 'NONE', ( #66 ) ) ;
#15 = CIRCLE ( 'NONE', #26, 15.65000000000000036 ) ;
#16 = ADVANCED_BREP_SHAPE_REPRESENTATION ( '76.05.04.0012', ( #76, #122 ), #45 ) ;
#17 = EDGE_CURVE ( 'NONE', #117, #117, #111, .T. ) ;
#18 = UNCERTAINTY_MEASURE_WITH_UNIT (LENGTH_MEASURE( 1.000000000000000082E-05 ), #13, 'distance_accuracy_value', 'NONE');
#19 = SHAPE_DEFINITION_REPRESENTATION ( #69, #16 ) ;
#20 = ADVANCED_FACE ( 'NONE', ( #12, #126 ), #80, .F. ) ;
#21 =( NAMED_UNIT ( * ) PLANE_ANGLE_UNIT ( ) SI_UNIT ( $, .RADIAN. ) );
#22 = VERTEX_POINT ( 'NONE', #65 ) ;
#23 = EDGE_LOOP ( 'NONE', ( #87 ) ) ;
#24 = DIRECTION ( 'NONE',  ( 1.000000000000000000, 0.000000000000000000, 0.000000000000000000 ) ) ;
#25 = FACE_OUTER_BOUND ( 'NONE', #100, .T. ) ;
#26 = AXIS2_PLACEMENT_3D ( 'NONE', #125, #33, #1 ) ;
#27 = DIRECTION ( 'NONE',  ( 1.000000000000000000, 0.000000000000000000, 0.000000000000000000 ) ) ;
#28 = PRODUCT_DEFINITION_FORMATION_WITH_SPECIFIED_SOURCE ( 'ANY', '', #93, .NOT_KNOWN. ) ;
#29 = DIRECTION ( 'NONE',  ( 0.000000000000000000, 0.000000000000000000, 1.000000000000000000 ) ) ;
#30 = FACE_OUTER_BOUND ( 'NONE', #2, .T. ) ;
#31 = EDGE_CURVE ( 'NONE', #22, #22, #5, .T. ) ;
#32 =( NAMED_UNIT ( * ) SI_UNIT ( $, .STERADIAN. ) SOLID_ANGLE_UNIT ( ) );
#33 = DIRECTION ( 'NONE',  ( 0.000000000000000000, 0.000000000000000000, 1.000000000000000000 ) ) ;
#34 = PRESENTATION_LAYER_ASSIGNMENT (  '', '', ( #116 ) ) ;
#35 = EDGE_LOOP ( 'NONE', ( #10 ) ) ;
#36 = FILL_AREA_STYLE ('',( #47 ) ) ;
#37 = PRESENTATION_STYLE_ASSIGNMENT (( #3 ) ) ;
#38 =( GEOMETRIC_REPRESENTATION_CONTEXT ( 3 ) GLOBAL_UNCERTAINTY_ASSIGNED_CONTEXT ( ( #18 ) ) GLOBAL_UNIT_ASSIGNED_CONTEXT ( ( #13, #39, #40 ) ) REPRESENTATION_CONTEXT ( 'NONE', 'WORKASPACE' ) );
#39 =( NAMED_UNIT ( * ) PLANE_ANGLE_UNIT ( ) SI_UNIT ( $, .RADIAN. ) );
#40 =( NAMED_UNIT ( * ) SI_UNIT ( $, .STERADIAN. ) SOLID_ANGLE_UNIT ( ) );
#41 = AXIS2_PLACEMENT_3D ( 'NONE', #98, #46, #42 ) ;
#42 = DIRECTION ( 'NONE',  ( 1.000000000000000000, 0.000000000000000000, 0.000000000000000000 ) ) ;
#43 = APPLICATION_CONTEXT ( 'automotive_design' ) ;
#44 = DIRECTION ( 'NONE',  ( 1.000000000000000000, 0.000000000000000000, -0.000000000000000000 ) ) ;
#45 =( GEOMETRIC_REPRESENTATION_CONTEXT ( 3 ) GLOBAL_UNCERTAINTY_ASSIGNED_CONTEXT ( ( #131 ) ) GLOBAL_UNIT_ASSIGNED_CONTEXT ( ( #70, #60, #130 ) ) REPRESENTATION_CONTEXT ( 'NONE', 'WORKASPACE' ) );
#46 = DIRECTION ( 'NONE',  ( 0.000000000000000000, 0.000000000000000000, 1.000000000000000000 ) ) ;
#47 = FILL_AREA_STYLE_COLOUR ( '', #74 ) ;
#48 = CARTESIAN_POINT ( 'NONE',  ( 27.75000000000000000, 0.000000000000000000, -1.850000000000000089 ) ) ;
#49 = CARTESIAN_POINT ( 'NONE',  ( 0.000000000000000000, 0.000000000000000000, 0.000000000000000000 ) ) ;
#50 = APPLICATION_PROTOCOL_DEFINITION ( 'draft international standard', 'automotive_design', 1998, #43 ) ;
#51 = COLOUR_RGB ( '',0.8274509803921568096, 0.8392156862745098200, 0.8274509803921568096 ) ;
#52 = CARTESIAN_POINT ( 'NONE',  ( 0.000000000000000000, 0.000000000000000000, 1.850000000000000089 ) ) ;
#53 = DIRECTION ( 'NONE',  ( 0.000000000000000000, 0.000000000000000000, 1.000000000000000000 ) ) ;
#54 = SURFACE_STYLE_FILL_AREA ( #36 ) ;
#55 = EDGE_LOOP ( 'NONE', ( #119 ) ) ;
#56 = CYLINDRICAL_SURFACE ( 'NONE', #85, 27.75000000000000000 ) ;
#57 = APPLICATION_CONTEXT ( 'automotive_design' ) ;
#58 = VERTEX_POINT ( 'NONE', #48 ) ;
#59 = ORIENTED_EDGE ( 'NONE', *, *, #4, .T. ) ;
#60 =( NAMED_UNIT ( * ) PLANE_ANGLE_UNIT ( ) SI_UNIT ( $, .RADIAN. ) );
#61 = AXIS2_PLACEMENT_3D ( 'NONE', #11, #79, #88 ) ;
#62 = PRODUCT_DEFINITION_CONTEXT ( 'detailed design', #57, 'design' ) ;
#63 = FACE_OUTER_BOUND ( 'NONE', #55, .T. ) ;
#64 = DIRECTION ( 'NONE',  ( 1.000000000000000000, 0.000000000000000000, 0.000000000000000000 ) ) ;
#65 = CARTESIAN_POINT ( 'NONE',  ( 27.75000000000000000, 0.000000000000000000, 1.850000000000000089 ) ) ;
#66 = ORIENTED_EDGE ( 'NONE', *, *, #17, .T. ) ;
#67 = PRESENTATION_LAYER_ASSIGNMENT (  '', '', ( #121 ) ) ;
#68 = CARTESIAN_POINT ( 'NONE',  ( 0.000000000000000000, 0.000000000000000000, 1.850000000000000089 ) ) ;
#69 = PRODUCT_DEFINITION_SHAPE ( 'NONE', 'NONE',  #127 ) ;
#70 =( LENGTH_UNIT ( ) NAMED_UNIT ( * ) SI_UNIT ( .MILLI., .METRE. ) );
#71 = EDGE_LOOP ( 'NONE', ( #78 ) ) ;
#72 = AXIS2_PLACEMENT_3D ( 'NONE', #68, #132, #134 ) ;
#73 = AXIS2_PLACEMENT_3D ( 'NONE', #95, #97, #64 ) ;
#74 = COLOUR_RGB ( '',0.8274509803921568096, 0.8392156862745098200, 0.8274509803921568096 ) ;
#75 =( GEOMETRIC_REPRESENTATION_CONTEXT ( 3 ) GLOBAL_UNCERTAINTY_ASSIGNED_CONTEXT ( ( #113 ) ) GLOBAL_UNIT_ASSIGNED_CONTEXT ( ( #86, #21, #32 ) ) REPRESENTATION_CONTEXT ( 'NONE', 'WORKASPACE' ) );
#76 = MANIFOLD_SOLID_BREP ( 'Boss-Extrude1', #107 ) ;
#77 = PLANE ( 'NONE',  #112 ) ;
#78 = ORIENTED_EDGE ( 'NONE', *, *, #17, .F. ) ;
#79 = DIRECTION ( 'NONE',  ( 0.000000000000000000, 0.000000000000000000, 1.000000000000000000 ) ) ;
#80 = CYLINDRICAL_SURFACE ( 'NONE', #72, 15.65000000000000036 ) ;
#81 = ORIENTED_EDGE ( 'NONE', *, *, #31, .T. ) ;
#82 = CARTESIAN_POINT ( 'NONE',  ( 0.000000000000000000, 0.000000000000000000, 1.850000000000000089 ) ) ;
#83 = ADVANCED_FACE ( 'NONE', ( #63, #103 ), #108, .F. ) ;
#84 = SURFACE_STYLE_USAGE ( .BOTH. , #96 ) ;
#85 = AXIS2_PLACEMENT_3D ( 'NONE', #124, #104, #6 ) ;
#86 =( LENGTH_UNIT ( ) NAMED_UNIT ( * ) SI_UNIT ( .MILLI., .METRE. ) );
#87 = ORIENTED_EDGE ( 'NONE', *, *, #31, .F. ) ;
#88 = DIRECTION ( 'NONE',  ( 1.000000000000000000, 0.000000000000000000, -0.000000000000000000 ) ) ;
#89 = FACE_OUTER_BOUND ( 'NONE', #23, .T. ) ;
#90 = CARTESIAN_POINT ( 'NONE',  ( 15.65000000000000036, 0.000000000000000000, 1.850000000000000089 ) ) ;
#91 = FILL_AREA_STYLE_COLOUR ( '', #51 ) ;
#92 = DIRECTION ( 'NONE',  ( 0.000000000000000000, 0.000000000000000000, 1.000000000000000000 ) ) ;
#93 = PRODUCT ( '76.05.04.0012', '76.05.04.0012', '', ( #102 ) ) ;
#94 = PRESENTATION_STYLE_ASSIGNMENT (( #84 ) ) ;
#95 = CARTESIAN_POINT ( 'NONE',  ( 0.000000000000000000, 0.000000000000000000, -1.850000000000000089 ) ) ;
#96 = SURFACE_SIDE_STYLE ('',( #54 ) ) ;
#97 = DIRECTION ( 'NONE',  ( 0.000000000000000000, 0.000000000000000000, 1.000000000000000000 ) ) ;
#98 = CARTESIAN_POINT ( 'NONE',  ( 0.000000000000000000, 0.000000000000000000, 1.850000000000000089 ) ) ;
#99 = FILL_AREA_STYLE ('',( #91 ) ) ;
#100 = EDGE_LOOP ( 'NONE', ( #81 ) ) ;
#101 = SURFACE_STYLE_FILL_AREA ( #99 ) ;
#102 = PRODUCT_CONTEXT ( 'NONE', #43, 'mechanical' ) ;
#103 = FACE_BOUND ( 'NONE', #35, .T. ) ;
#104 = DIRECTION ( 'NONE',  ( -0.000000000000000000, -0.000000000000000000, -1.000000000000000000 ) ) ;
#105 = VERTEX_POINT ( 'NONE', #8 ) ;
#106 = ADVANCED_FACE ( 'NONE', ( #89, #30 ), #56, .T. ) ;
#107 = CLOSED_SHELL ( 'NONE', ( #128, #83, #106, #20 ) ) ;
#108 = PLANE ( 'NONE',  #61 ) ;
#109 = EDGE_CURVE ( 'NONE', #105, #105, #15, .T. ) ;
#110 = APPLICATION_PROTOCOL_DEFINITION ( 'draft international standard', 'automotive_design', 1998, #57 ) ;
#111 = CIRCLE ( 'NONE', #123, 15.65000000000000036 ) ;
#112 = AXIS2_PLACEMENT_3D ( 'NONE', #52, #53, #44 ) ;
#113 = UNCERTAINTY_MEASURE_WITH_UNIT (LENGTH_MEASURE( 1.000000000000000082E-05 ), #86, 'distance_accuracy_value', 'NONE');
#114 = CIRCLE ( 'NONE', #73, 27.75000000000000000 ) ;
#115 = PRODUCT_RELATED_PRODUCT_CATEGORY ( 'part', '', ( #93 ) ) ;
#116 = STYLED_ITEM ( 'NONE', ( #94 ), #76 ) ;
#117 = VERTEX_POINT ( 'NONE', #90 ) ;
#118 = EDGE_LOOP ( 'NONE', ( #133 ) ) ;
#119 = ORIENTED_EDGE ( 'NONE', *, *, #4, .F. ) ;
#120 = SURFACE_SIDE_STYLE ('',( #101 ) ) ;
#121 = STYLED_ITEM ( 'NONE', ( #37 ), #16 ) ;
#122 = AXIS2_PLACEMENT_3D ( 'NONE', #49, #92, #27 ) ;
#123 = AXIS2_PLACEMENT_3D ( 'NONE', #82, #29, #24 ) ;
#124 = CARTESIAN_POINT ( 'NONE',  ( 0.000000000000000000, 0.000000000000000000, 1.850000000000000089 ) ) ;
#125 = CARTESIAN_POINT ( 'NONE',  ( 0.000000000000000000, 0.000000000000000000, -1.850000000000000089 ) ) ;
#126 = FACE_OUTER_BOUND ( 'NONE', #118, .T. ) ;
#127 = PRODUCT_DEFINITION ( 'UNKNOWN', '', #28, #62 ) ;
#128 = ADVANCED_FACE ( 'NONE', ( #25, #7 ), #77, .T. ) ;
#129 = MECHANICAL_DESIGN_GEOMETRIC_PRESENTATION_REPRESENTATION (  '', ( #121 ), #38 ) ;
#130 =( NAMED_UNIT ( * ) SI_UNIT ( $, .STERADIAN. ) SOLID_ANGLE_UNIT ( ) );
#131 = UNCERTAINTY_MEASURE_WITH_UNIT (LENGTH_MEASURE( 1.000000000000000082E-05 ), #70, 'distance_accuracy_value', 'NONE');
#132 = DIRECTION ( 'NONE',  ( -0.000000000000000000, -0.000000000000000000, -1.000000000000000000 ) ) ;
#133 = ORIENTED_EDGE ( 'NONE', *, *, #109, .F. ) ;
#134 = DIRECTION ( 'NONE',  ( -1.000000000000000000, 0.000000000000000000, 0.000000000000000000 ) ) ;
ENDSEC;
END-ISO-10303-21;
