ISO-10303-21;
HEADER;
FILE_DESCRIPTION (( 'STEP AP214' ),
    '1' );
FILE_NAME ('76.05.04.0011.step',
    '2021-04-02T17:37:03',
    ( '' ),
    ( '' ),
    'SwSTEP 2.0',
    'SolidWorks 2021',
    '' );
FILE_SCHEMA (( 'AUTOMOTIVE_DESIGN' ));
ENDSEC;

DATA;
#1 = CARTESIAN_POINT ( 'NONE',  ( 0.000000000000000000, 0.000000000000000000, -2.000000000000000000 ) ) ;
#2 = MANIFOLD_SOLID_BREP ( 'Boss-Extrude1', #39 ) ;
#3 = APPLICATION_CONTEXT ( 'automotive_design' ) ;
#4 = UNCERTAINTY_MEASURE_WITH_UNIT (LENGTH_MEASURE( 1.000000000000000082E-05 ), #82, 'distance_accuracy_value', 'NONE');
#5 =( LENGTH_UNIT ( ) NAMED_UNIT ( * ) SI_UNIT ( .MILLI., .METRE. ) );
#6 = ORIENTED_EDGE ( 'NONE', *, *, #22, .T. ) ;
#7 = AXIS2_PLACEMENT_3D ( 'NONE', #123, #33, #93 ) ;
#8 = FACE_OUTER_BOUND ( 'NONE', #90, .T. ) ;
#9 = FACE_OUTER_BOUND ( 'NONE', #31, .T. ) ;
#10 = PRESENTATION_STYLE_ASSIGNMENT (( #62 ) ) ;
#11 = ORIENTED_EDGE ( 'NONE', *, *, #35, .T. ) ;
#12 = VERTEX_POINT ( 'NONE', #89 ) ;
#13 = AXIS2_PLACEMENT_3D ( 'NONE', #102, #110, #34 ) ;
#14 = PRODUCT ( '76.05.04.0011', '76.05.04.0011', '', ( #17 ) ) ;
#15 = ADVANCED_FACE ( 'NONE', ( #124, #67 ), #109, .T. ) ;
#16 = AXIS2_PLACEMENT_3D ( 'NONE', #80, #69, #125 ) ;
#17 = PRODUCT_CONTEXT ( 'NONE', #3, 'mechanical' ) ;
#18 = FILL_AREA_STYLE_COLOUR ( '', #54 ) ;
#19 = ORIENTED_EDGE ( 'NONE', *, *, #22, .F. ) ;
#20 = SURFACE_STYLE_FILL_AREA ( #131 ) ;
#21 = EDGE_LOOP ( 'NONE', ( #119 ) ) ;
#22 = EDGE_CURVE ( 'NONE', #27, #27, #64, .T. ) ;
#23 =( GEOMETRIC_REPRESENTATION_CONTEXT ( 3 ) GLOBAL_UNCERTAINTY_ASSIGNED_CONTEXT ( ( #4 ) ) GLOBAL_UNIT_ASSIGNED_CONTEXT ( ( #82, #29, #41 ) ) REPRESENTATION_CONTEXT ( 'NONE', 'WORKASPACE' ) );
#24 = DIRECTION ( 'NONE',  ( 1.000000000000000000, 0.000000000000000000, 0.000000000000000000 ) ) ;
#25 = SURFACE_SIDE_STYLE ('',( #104 ) ) ;
#26 = CARTESIAN_POINT ( 'NONE',  ( 0.000000000000000000, 0.000000000000000000, 2.000000000000000000 ) ) ;
#27 = VERTEX_POINT ( 'NONE', #63 ) ;
#28 = PRESENTATION_LAYER_ASSIGNMENT (  '', '', ( #42 ) ) ;
#29 =( NAMED_UNIT ( * ) PLANE_ANGLE_UNIT ( ) SI_UNIT ( $, .RADIAN. ) );
#30 = SHAPE_DEFINITION_REPRESENTATION ( #81, #108 ) ;
#31 = EDGE_LOOP ( 'NONE', ( #32 ) ) ;
#32 = ORIENTED_EDGE ( 'NONE', *, *, #74, .T. ) ;
#33 = DIRECTION ( 'NONE',  ( 0.000000000000000000, 0.000000000000000000, 1.000000000000000000 ) ) ;
#34 = DIRECTION ( 'NONE',  ( 1.000000000000000000, 0.000000000000000000, 0.000000000000000000 ) ) ;
#35 = EDGE_CURVE ( 'NONE', #12, #12, #120, .T. ) ;
#36 = DIRECTION ( 'NONE',  ( -1.000000000000000000, 0.000000000000000000, 0.000000000000000000 ) ) ;
#37 = MECHANICAL_DESIGN_GEOMETRIC_PRESENTATION_REPRESENTATION (  '', ( #106 ), #48 ) ;
#38 = DIRECTION ( 'NONE',  ( -1.000000000000000000, 0.000000000000000000, 0.000000000000000000 ) ) ;
#39 = CLOSED_SHELL ( 'NONE', ( #117, #65, #15, #95 ) ) ;
#40 = APPLICATION_CONTEXT ( 'automotive_design' ) ;
#41 =( NAMED_UNIT ( * ) SI_UNIT ( $, .STERADIAN. ) SOLID_ANGLE_UNIT ( ) );
#42 = STYLED_ITEM ( 'NONE', ( #73 ), #108 ) ;
#43 = DIRECTION ( 'NONE',  ( 1.000000000000000000, 0.000000000000000000, 0.000000000000000000 ) ) ;
#44 =( NAMED_UNIT ( * ) SI_UNIT ( $, .STERADIAN. ) SOLID_ANGLE_UNIT ( ) );
#45 = ORIENTED_EDGE ( 'NONE', *, *, #35, .F. ) ;
#46 = FILL_AREA_STYLE_COLOUR ( '', #56 ) ;
#47 = FACE_BOUND ( 'NONE', #21, .T. ) ;
#48 =( GEOMETRIC_REPRESENTATION_CONTEXT ( 3 ) GLOBAL_UNCERTAINTY_ASSIGNED_CONTEXT ( ( #98 ) ) GLOBAL_UNIT_ASSIGNED_CONTEXT ( ( #114, #75, #99 ) ) REPRESENTATION_CONTEXT ( 'NONE', 'WORKASPACE' ) );
#49 = FACE_OUTER_BOUND ( 'NONE', #85, .T. ) ;
#50 = AXIS2_PLACEMENT_3D ( 'NONE', #76, #133, #38 ) ;
#51 = MECHANICAL_DESIGN_GEOMETRIC_PRESENTATION_REPRESENTATION (  '', ( #42 ), #128 ) ;
#52 = VERTEX_POINT ( 'NONE', #87 ) ;
#53 = PLANE ( 'NONE',  #94 ) ;
#54 = COLOUR_RGB ( '',0.8274509803921568096, 0.8392156862745098200, 0.8274509803921568096 ) ;
#55 = CYLINDRICAL_SURFACE ( 'NONE', #60, 12.50000000000000000 ) ;
#56 = COLOUR_RGB ( '',0.8274509803921568096, 0.8392156862745098200, 0.8274509803921568096 ) ;
#57 = ORIENTED_EDGE ( 'NONE', *, *, #103, .F. ) ;
#58 = AXIS2_PLACEMENT_3D ( 'NONE', #111, #122, #101 ) ;
#59 = EDGE_LOOP ( 'NONE', ( #66 ) ) ;
#60 = AXIS2_PLACEMENT_3D ( 'NONE', #91, #77, #36 ) ;
#61 = FACE_OUTER_BOUND ( 'NONE', #107, .T. ) ;
#62 = SURFACE_STYLE_USAGE ( .BOTH. , #25 ) ;
#63 = CARTESIAN_POINT ( 'NONE',  ( 19.50000000000000000, 0.000000000000000000, -2.000000000000000000 ) ) ;
#64 = CIRCLE ( 'NONE', #7, 19.50000000000000000 ) ;
#65 = ADVANCED_FACE ( 'NONE', ( #8, #92 ), #53, .F. ) ;
#66 = ORIENTED_EDGE ( 'NONE', *, *, #103, .T. ) ;
#67 = FACE_OUTER_BOUND ( 'NONE', #105, .T. ) ;
#68 = FILL_AREA_STYLE ('',( #46 ) ) ;
#69 = DIRECTION ( 'NONE',  ( 0.000000000000000000, 0.000000000000000000, 1.000000000000000000 ) ) ;
#70 = CIRCLE ( 'NONE', #112, 12.50000000000000000 ) ;
#71 = APPLICATION_PROTOCOL_DEFINITION ( 'draft international standard', 'automotive_design', 1998, #3 ) ;
#72 = EDGE_LOOP ( 'NONE', ( #45 ) ) ;
#73 = PRESENTATION_STYLE_ASSIGNMENT (( #127 ) ) ;
#74 = EDGE_CURVE ( 'NONE', #132, #132, #70, .T. ) ;
#75 =( NAMED_UNIT ( * ) PLANE_ANGLE_UNIT ( ) SI_UNIT ( $, .RADIAN. ) );
#76 = CARTESIAN_POINT ( 'NONE',  ( 0.000000000000000000, 0.000000000000000000, 2.000000000000000000 ) ) ;
#77 = DIRECTION ( 'NONE',  ( -0.000000000000000000, -0.000000000000000000, -1.000000000000000000 ) ) ;
#78 = PLANE ( 'NONE',  #16 ) ;
#79 = AXIS2_PLACEMENT_3D ( 'NONE', #97, #116, #43 ) ;
#80 = CARTESIAN_POINT ( 'NONE',  ( 0.000000000000000000, 0.000000000000000000, 2.000000000000000000 ) ) ;
#81 = PRODUCT_DEFINITION_SHAPE ( 'NONE', 'NONE',  #126 ) ;
#82 =( LENGTH_UNIT ( ) NAMED_UNIT ( * ) SI_UNIT ( .MILLI., .METRE. ) );
#83 = PRODUCT_DEFINITION_FORMATION_WITH_SPECIFIED_SOURCE ( 'ANY', '', #14, .NOT_KNOWN. ) ;
#84 =( NAMED_UNIT ( * ) PLANE_ANGLE_UNIT ( ) SI_UNIT ( $, .RADIAN. ) );
#85 = EDGE_LOOP ( 'NONE', ( #57 ) ) ;
#86 = PRODUCT_RELATED_PRODUCT_CATEGORY ( 'part', '', ( #14 ) ) ;
#87 = CARTESIAN_POINT ( 'NONE',  ( 12.50000000000000000, 0.000000000000000000, -2.000000000000000000 ) ) ;
#88 = PRESENTATION_LAYER_ASSIGNMENT (  '', '', ( #106 ) ) ;
#89 = CARTESIAN_POINT ( 'NONE',  ( 19.50000000000000000, 0.000000000000000000, 2.000000000000000000 ) ) ;
#90 = EDGE_LOOP ( 'NONE', ( #19 ) ) ;
#91 = CARTESIAN_POINT ( 'NONE',  ( 0.000000000000000000, 0.000000000000000000, 2.000000000000000000 ) ) ;
#92 = FACE_BOUND ( 'NONE', #59, .T. ) ;
#93 = DIRECTION ( 'NONE',  ( 1.000000000000000000, 0.000000000000000000, 0.000000000000000000 ) ) ;
#94 = AXIS2_PLACEMENT_3D ( 'NONE', #1, #100, #113 ) ;
#95 = ADVANCED_FACE ( 'NONE', ( #9, #49 ), #55, .F. ) ;
#96 = PRODUCT_DEFINITION_CONTEXT ( 'detailed design', #40, 'design' ) ;
#97 = CARTESIAN_POINT ( 'NONE',  ( 0.000000000000000000, 0.000000000000000000, 0.000000000000000000 ) ) ;
#98 = UNCERTAINTY_MEASURE_WITH_UNIT (LENGTH_MEASURE( 1.000000000000000082E-05 ), #114, 'distance_accuracy_value', 'NONE');
#99 =( NAMED_UNIT ( * ) SI_UNIT ( $, .STERADIAN. ) SOLID_ANGLE_UNIT ( ) );
#100 = DIRECTION ( 'NONE',  ( 0.000000000000000000, 0.000000000000000000, 1.000000000000000000 ) ) ;
#101 = DIRECTION ( 'NONE',  ( 1.000000000000000000, 0.000000000000000000, 0.000000000000000000 ) ) ;
#102 = CARTESIAN_POINT ( 'NONE',  ( 0.000000000000000000, 0.000000000000000000, 2.000000000000000000 ) ) ;
#103 = EDGE_CURVE ( 'NONE', #52, #52, #115, .T. ) ;
#104 = SURFACE_STYLE_FILL_AREA ( #68 ) ;
#105 = EDGE_LOOP ( 'NONE', ( #6 ) ) ;
#106 = STYLED_ITEM ( 'NONE', ( #10 ), #2 ) ;
#107 = EDGE_LOOP ( 'NONE', ( #11 ) ) ;
#108 = ADVANCED_BREP_SHAPE_REPRESENTATION ( '76.05.04.0011', ( #2, #79 ), #23 ) ;
#109 = CYLINDRICAL_SURFACE ( 'NONE', #50, 19.50000000000000000 ) ;
#110 = DIRECTION ( 'NONE',  ( 0.000000000000000000, 0.000000000000000000, 1.000000000000000000 ) ) ;
#111 = CARTESIAN_POINT ( 'NONE',  ( 0.000000000000000000, 0.000000000000000000, -2.000000000000000000 ) ) ;
#112 = AXIS2_PLACEMENT_3D ( 'NONE', #26, #134, #24 ) ;
#113 = DIRECTION ( 'NONE',  ( 1.000000000000000000, 0.000000000000000000, -0.000000000000000000 ) ) ;
#114 =( LENGTH_UNIT ( ) NAMED_UNIT ( * ) SI_UNIT ( .MILLI., .METRE. ) );
#115 = CIRCLE ( 'NONE', #58, 12.50000000000000000 ) ;
#116 = DIRECTION ( 'NONE',  ( 0.000000000000000000, 0.000000000000000000, 1.000000000000000000 ) ) ;
#117 = ADVANCED_FACE ( 'NONE', ( #61, #47 ), #78, .T. ) ;
#118 = APPLICATION_PROTOCOL_DEFINITION ( 'draft international standard', 'automotive_design', 1998, #40 ) ;
#119 = ORIENTED_EDGE ( 'NONE', *, *, #74, .F. ) ;
#120 = CIRCLE ( 'NONE', #13, 19.50000000000000000 ) ;
#121 = CARTESIAN_POINT ( 'NONE',  ( 12.50000000000000000, 0.000000000000000000, 2.000000000000000000 ) ) ;
#122 = DIRECTION ( 'NONE',  ( 0.000000000000000000, 0.000000000000000000, 1.000000000000000000 ) ) ;
#123 = CARTESIAN_POINT ( 'NONE',  ( 0.000000000000000000, 0.000000000000000000, -2.000000000000000000 ) ) ;
#124 = FACE_OUTER_BOUND ( 'NONE', #72, .T. ) ;
#125 = DIRECTION ( 'NONE',  ( 1.000000000000000000, 0.000000000000000000, -0.000000000000000000 ) ) ;
#126 = PRODUCT_DEFINITION ( 'UNKNOWN', '', #83, #96 ) ;
#127 = SURFACE_STYLE_USAGE ( .BOTH. , #129 ) ;
#128 =( GEOMETRIC_REPRESENTATION_CONTEXT ( 3 ) GLOBAL_UNCERTAINTY_ASSIGNED_CONTEXT ( ( #130 ) ) GLOBAL_UNIT_ASSIGNED_CONTEXT ( ( #5, #84, #44 ) ) REPRESENTATION_CONTEXT ( 'NONE', 'WORKASPACE' ) );
#129 = SURFACE_SIDE_STYLE ('',( #20 ) ) ;
#130 = UNCERTAINTY_MEASURE_WITH_UNIT (LENGTH_MEASURE( 1.000000000000000082E-05 ), #5, 'distance_accuracy_value', 'NONE');
#131 = FILL_AREA_STYLE ('',( #18 ) ) ;
#132 = VERTEX_POINT ( 'NONE', #121 ) ;
#133 = DIRECTION ( 'NONE',  ( -0.000000000000000000, -0.000000000000000000, -1.000000000000000000 ) ) ;
#134 = DIRECTION ( 'NONE',  ( 0.000000000000000000, 0.000000000000000000, 1.000000000000000000 ) ) ;
ENDSEC;
END-ISO-10303-21;
