ISO-10303-21;
HEADER;
FILE_DESCRIPTION (( 'STEP AP214' ),
    '1' );
FILE_NAME ('76.05.04.0010.step',
    '2021-04-02T17:37:02',
    ( '' ),
    ( '' ),
    'SwSTEP 2.0',
    'SolidWorks 2021',
    '' );
FILE_SCHEMA (( 'AUTOMOTIVE_DESIGN' ));
ENDSEC;

DATA;
#1 = DIRECTION ( 'NONE',  ( 0.000000000000000000, 0.000000000000000000, 1.000000000000000000 ) ) ;
#2 = ORIENTED_EDGE ( 'NONE', *, *, #130, .F. ) ;
#3 = CYLINDRICAL_SURFACE ( 'NONE', #56, 16.50000000000000000 ) ;
#4 = DIRECTION ( 'NONE',  ( -1.000000000000000000, 0.000000000000000000, 0.000000000000000000 ) ) ;
#5 = STYLED_ITEM ( 'NONE', ( #60 ), #50 ) ;
#6 = FACE_OUTER_BOUND ( 'NONE', #127, .T. ) ;
#7 = APPLICATION_PROTOCOL_DEFINITION ( 'draft international standard', 'automotive_design', 1998, #68 ) ;
#8 = MECHANICAL_DESIGN_GEOMETRIC_PRESENTATION_REPRESENTATION (  '', ( #5 ), #28 ) ;
#9 = UNCERTAINTY_MEASURE_WITH_UNIT (LENGTH_MEASURE( 1.000000000000000082E-05 ), #93, 'distance_accuracy_value', 'NONE');
#10 = COLOUR_RGB ( '',0.8274509803921568096, 0.8392156862745098200, 0.8274509803921568096 ) ;
#11 = ORIENTED_EDGE ( 'NONE', *, *, #114, .T. ) ;
#12 = EDGE_LOOP ( 'NONE', ( #24 ) ) ;
#13 =( GEOMETRIC_REPRESENTATION_CONTEXT ( 3 ) GLOBAL_UNCERTAINTY_ASSIGNED_CONTEXT ( ( #122 ) ) GLOBAL_UNIT_ASSIGNED_CONTEXT ( ( #33, #30, #94 ) ) REPRESENTATION_CONTEXT ( 'NONE', 'WORKASPACE' ) );
#14 =( NAMED_UNIT ( * ) SI_UNIT ( $, .STERADIAN. ) SOLID_ANGLE_UNIT ( ) );
#15 = FACE_OUTER_BOUND ( 'NONE', #49, .T. ) ;
#16 = EDGE_CURVE ( 'NONE', #81, #81, #37, .T. ) ;
#17 = ADVANCED_BREP_SHAPE_REPRESENTATION ( '76.05.04.0010', ( #50, #91 ), #13 ) ;
#18 = CARTESIAN_POINT ( 'NONE',  ( 16.50000000000000000, 0.000000000000000000, -1.250000000000000000 ) ) ;
#19 = AXIS2_PLACEMENT_3D ( 'NONE', #124, #70, #43 ) ;
#20 = FACE_BOUND ( 'NONE', #74, .T. ) ;
#21 = DIRECTION ( 'NONE',  ( 1.000000000000000000, 0.000000000000000000, 0.000000000000000000 ) ) ;
#22 = ORIENTED_EDGE ( 'NONE', *, *, #100, .T. ) ;
#23 = CARTESIAN_POINT ( 'NONE',  ( 0.000000000000000000, 0.000000000000000000, 1.250000000000000000 ) ) ;
#24 = ORIENTED_EDGE ( 'NONE', *, *, #130, .T. ) ;
#25 =( NAMED_UNIT ( * ) PLANE_ANGLE_UNIT ( ) SI_UNIT ( $, .RADIAN. ) );
#26 = SURFACE_SIDE_STYLE ('',( #87 ) ) ;
#27 = DIRECTION ( 'NONE',  ( 1.000000000000000000, 0.000000000000000000, 0.000000000000000000 ) ) ;
#28 =( GEOMETRIC_REPRESENTATION_CONTEXT ( 3 ) GLOBAL_UNCERTAINTY_ASSIGNED_CONTEXT ( ( #118 ) ) GLOBAL_UNIT_ASSIGNED_CONTEXT ( ( #75, #25, #14 ) ) REPRESENTATION_CONTEXT ( 'NONE', 'WORKASPACE' ) );
#29 = APPLICATION_CONTEXT ( 'automotive_design' ) ;
#30 =( NAMED_UNIT ( * ) PLANE_ANGLE_UNIT ( ) SI_UNIT ( $, .RADIAN. ) );
#31 = CIRCLE ( 'NONE', #105, 16.50000000000000000 ) ;
#32 = ADVANCED_FACE ( 'NONE', ( #106, #34 ), #3, .T. ) ;
#33 =( LENGTH_UNIT ( ) NAMED_UNIT ( * ) SI_UNIT ( .MILLI., .METRE. ) );
#34 = FACE_OUTER_BOUND ( 'NONE', #35, .T. ) ;
#35 = EDGE_LOOP ( 'NONE', ( #11 ) ) ;
#36 = DIRECTION ( 'NONE',  ( 1.000000000000000000, 0.000000000000000000, 0.000000000000000000 ) ) ;
#37 = CIRCLE ( 'NONE', #76, 10.50000000000000000 ) ;
#38 =( GEOMETRIC_REPRESENTATION_CONTEXT ( 3 ) GLOBAL_UNCERTAINTY_ASSIGNED_CONTEXT ( ( #9 ) ) GLOBAL_UNIT_ASSIGNED_CONTEXT ( ( #93, #92, #103 ) ) REPRESENTATION_CONTEXT ( 'NONE', 'WORKASPACE' ) );
#39 = CYLINDRICAL_SURFACE ( 'NONE', #90, 10.50000000000000000 ) ;
#40 = DIRECTION ( 'NONE',  ( -0.000000000000000000, -0.000000000000000000, -1.000000000000000000 ) ) ;
#41 = STYLED_ITEM ( 'NONE', ( #115 ), #17 ) ;
#42 = FILL_AREA_STYLE_COLOUR ( '', #109 ) ;
#43 = DIRECTION ( 'NONE',  ( 1.000000000000000000, 0.000000000000000000, -0.000000000000000000 ) ) ;
#44 = APPLICATION_PROTOCOL_DEFINITION ( 'draft international standard', 'automotive_design', 1998, #29 ) ;
#45 = PRODUCT_DEFINITION ( 'UNKNOWN', '', #64, #79 ) ;
#46 = CARTESIAN_POINT ( 'NONE',  ( 10.50000000000000000, 0.000000000000000000, 1.250000000000000000 ) ) ;
#47 = VERTEX_POINT ( 'NONE', #46 ) ;
#48 = PRODUCT_CONTEXT ( 'NONE', #68, 'mechanical' ) ;
#49 = EDGE_LOOP ( 'NONE', ( #22 ) ) ;
#50 = MANIFOLD_SOLID_BREP ( 'Boss-Extrude1', #57 ) ;
#51 = AXIS2_PLACEMENT_3D ( 'NONE', #23, #66, #27 ) ;
#52 = PLANE ( 'NONE',  #88 ) ;
#53 = FILL_AREA_STYLE ('',( #42 ) ) ;
#54 = AXIS2_PLACEMENT_3D ( 'NONE', #99, #77, #67 ) ;
#55 = VERTEX_POINT ( 'NONE', #84 ) ;
#56 = AXIS2_PLACEMENT_3D ( 'NONE', #72, #119, #4 ) ;
#57 = CLOSED_SHELL ( 'NONE', ( #131, #125, #32, #110 ) ) ;
#58 = CARTESIAN_POINT ( 'NONE',  ( 0.000000000000000000, 0.000000000000000000, -1.250000000000000000 ) ) ;
#59 = ORIENTED_EDGE ( 'NONE', *, *, #16, .T. ) ;
#60 = PRESENTATION_STYLE_ASSIGNMENT (( #108 ) ) ;
#61 = DIRECTION ( 'NONE',  ( 1.000000000000000000, 0.000000000000000000, -0.000000000000000000 ) ) ;
#62 = CARTESIAN_POINT ( 'NONE',  ( 0.000000000000000000, 0.000000000000000000, 1.250000000000000000 ) ) ;
#63 = PRODUCT ( '76.05.04.0010', '76.05.04.0010', '', ( #48 ) ) ;
#64 = PRODUCT_DEFINITION_FORMATION_WITH_SPECIFIED_SOURCE ( 'ANY', '', #63, .NOT_KNOWN. ) ;
#65 = EDGE_LOOP ( 'NONE', ( #2 ) ) ;
#66 = DIRECTION ( 'NONE',  ( 0.000000000000000000, 0.000000000000000000, 1.000000000000000000 ) ) ;
#67 = DIRECTION ( 'NONE',  ( 1.000000000000000000, 0.000000000000000000, 0.000000000000000000 ) ) ;
#68 = APPLICATION_CONTEXT ( 'automotive_design' ) ;
#69 = DIRECTION ( 'NONE',  ( 1.000000000000000000, 0.000000000000000000, 0.000000000000000000 ) ) ;
#70 = DIRECTION ( 'NONE',  ( 0.000000000000000000, 0.000000000000000000, 1.000000000000000000 ) ) ;
#71 = SURFACE_STYLE_USAGE ( .BOTH. , #117 ) ;
#72 = CARTESIAN_POINT ( 'NONE',  ( 0.000000000000000000, 0.000000000000000000, 1.250000000000000000 ) ) ;
#73 = ORIENTED_EDGE ( 'NONE', *, *, #16, .F. ) ;
#74 = EDGE_LOOP ( 'NONE', ( #96 ) ) ;
#75 =( LENGTH_UNIT ( ) NAMED_UNIT ( * ) SI_UNIT ( .MILLI., .METRE. ) );
#76 = AXIS2_PLACEMENT_3D ( 'NONE', #58, #126, #36 ) ;
#77 = DIRECTION ( 'NONE',  ( 0.000000000000000000, 0.000000000000000000, 1.000000000000000000 ) ) ;
#78 = CARTESIAN_POINT ( 'NONE',  ( 0.000000000000000000, 0.000000000000000000, 1.250000000000000000 ) ) ;
#79 = PRODUCT_DEFINITION_CONTEXT ( 'detailed design', #29, 'design' ) ;
#80 = CIRCLE ( 'NONE', #51, 10.50000000000000000 ) ;
#81 = VERTEX_POINT ( 'NONE', #83 ) ;
#82 = SHAPE_DEFINITION_REPRESENTATION ( #116, #17 ) ;
#83 = CARTESIAN_POINT ( 'NONE',  ( 10.50000000000000000, 0.000000000000000000, -1.250000000000000000 ) ) ;
#84 = CARTESIAN_POINT ( 'NONE',  ( 16.50000000000000000, 0.000000000000000000, 1.250000000000000000 ) ) ;
#85 = ORIENTED_EDGE ( 'NONE', *, *, #114, .F. ) ;
#86 = CARTESIAN_POINT ( 'NONE',  ( 0.000000000000000000, 0.000000000000000000, -1.250000000000000000 ) ) ;
#87 = SURFACE_STYLE_FILL_AREA ( #53 ) ;
#88 = AXIS2_PLACEMENT_3D ( 'NONE', #86, #121, #61 ) ;
#89 = FACE_BOUND ( 'NONE', #97, .T. ) ;
#90 = AXIS2_PLACEMENT_3D ( 'NONE', #62, #40, #129 ) ;
#91 = AXIS2_PLACEMENT_3D ( 'NONE', #104, #1, #21 ) ;
#92 =( NAMED_UNIT ( * ) PLANE_ANGLE_UNIT ( ) SI_UNIT ( $, .RADIAN. ) );
#93 =( LENGTH_UNIT ( ) NAMED_UNIT ( * ) SI_UNIT ( .MILLI., .METRE. ) );
#94 =( NAMED_UNIT ( * ) SI_UNIT ( $, .STERADIAN. ) SOLID_ANGLE_UNIT ( ) );
#95 = FILL_AREA_STYLE ('',( #111 ) ) ;
#96 = ORIENTED_EDGE ( 'NONE', *, *, #100, .F. ) ;
#97 = EDGE_LOOP ( 'NONE', ( #59 ) ) ;
#98 = EDGE_LOOP ( 'NONE', ( #73 ) ) ;
#99 = CARTESIAN_POINT ( 'NONE',  ( 0.000000000000000000, 0.000000000000000000, -1.250000000000000000 ) ) ;
#100 = EDGE_CURVE ( 'NONE', #47, #47, #80, .T. ) ;
#101 = FACE_OUTER_BOUND ( 'NONE', #12, .T. ) ;
#102 = SURFACE_STYLE_FILL_AREA ( #95 ) ;
#103 =( NAMED_UNIT ( * ) SI_UNIT ( $, .STERADIAN. ) SOLID_ANGLE_UNIT ( ) );
#104 = CARTESIAN_POINT ( 'NONE',  ( 0.000000000000000000, 0.000000000000000000, 0.000000000000000000 ) ) ;
#105 = AXIS2_PLACEMENT_3D ( 'NONE', #78, #123, #69 ) ;
#106 = FACE_OUTER_BOUND ( 'NONE', #65, .T. ) ;
#107 = PRESENTATION_LAYER_ASSIGNMENT (  '', '', ( #5 ) ) ;
#108 = SURFACE_STYLE_USAGE ( .BOTH. , #26 ) ;
#109 = COLOUR_RGB ( '',0.8274509803921568096, 0.8392156862745098200, 0.8274509803921568096 ) ;
#110 = ADVANCED_FACE ( 'NONE', ( #15, #128 ), #39, .F. ) ;
#111 = FILL_AREA_STYLE_COLOUR ( '', #10 ) ;
#112 = VERTEX_POINT ( 'NONE', #18 ) ;
#113 = MECHANICAL_DESIGN_GEOMETRIC_PRESENTATION_REPRESENTATION (  '', ( #41 ), #38 ) ;
#114 = EDGE_CURVE ( 'NONE', #112, #112, #132, .T. ) ;
#115 = PRESENTATION_STYLE_ASSIGNMENT (( #71 ) ) ;
#116 = PRODUCT_DEFINITION_SHAPE ( 'NONE', 'NONE',  #45 ) ;
#117 = SURFACE_SIDE_STYLE ('',( #102 ) ) ;
#118 = UNCERTAINTY_MEASURE_WITH_UNIT (LENGTH_MEASURE( 1.000000000000000082E-05 ), #75, 'distance_accuracy_value', 'NONE');
#119 = DIRECTION ( 'NONE',  ( -0.000000000000000000, -0.000000000000000000, -1.000000000000000000 ) ) ;
#120 = PRODUCT_RELATED_PRODUCT_CATEGORY ( 'part', '', ( #63 ) ) ;
#121 = DIRECTION ( 'NONE',  ( 0.000000000000000000, 0.000000000000000000, 1.000000000000000000 ) ) ;
#122 = UNCERTAINTY_MEASURE_WITH_UNIT (LENGTH_MEASURE( 1.000000000000000082E-05 ), #33, 'distance_accuracy_value', 'NONE');
#123 = DIRECTION ( 'NONE',  ( 0.000000000000000000, 0.000000000000000000, 1.000000000000000000 ) ) ;
#124 = CARTESIAN_POINT ( 'NONE',  ( 0.000000000000000000, 0.000000000000000000, 1.250000000000000000 ) ) ;
#125 = ADVANCED_FACE ( 'NONE', ( #6, #89 ), #52, .F. ) ;
#126 = DIRECTION ( 'NONE',  ( 0.000000000000000000, 0.000000000000000000, 1.000000000000000000 ) ) ;
#127 = EDGE_LOOP ( 'NONE', ( #85 ) ) ;
#128 = FACE_OUTER_BOUND ( 'NONE', #98, .T. ) ;
#129 = DIRECTION ( 'NONE',  ( -1.000000000000000000, 0.000000000000000000, 0.000000000000000000 ) ) ;
#130 = EDGE_CURVE ( 'NONE', #55, #55, #31, .T. ) ;
#131 = ADVANCED_FACE ( 'NONE', ( #101, #20 ), #134, .T. ) ;
#132 = CIRCLE ( 'NONE', #54, 16.50000000000000000 ) ;
#133 = PRESENTATION_LAYER_ASSIGNMENT (  '', '', ( #41 ) ) ;
#134 = PLANE ( 'NONE',  #19 ) ;
ENDSEC;
END-ISO-10303-21;
