ISO-10303-21;
HEADER;
FILE_DESCRIPTION (( 'STEP AP214' ),
    '1' );
FILE_NAME ('76.05.04.0009.step',
    '2021-04-02T17:37:01',
    ( '' ),
    ( '' ),
    'SwSTEP 2.0',
    'SolidWorks 2021',
    '' );
FILE_SCHEMA (( 'AUTOMOTIVE_DESIGN' ));
ENDSEC;

DATA;
#1 = AXIS2_PLACEMENT_3D ( 'NONE', #46, #53, #129 ) ;
#2 =( NAMED_UNIT ( * ) PLANE_ANGLE_UNIT ( ) SI_UNIT ( $, .RADIAN. ) );
#3 = DIRECTION ( 'NONE',  ( 0.000000000000000000, 0.000000000000000000, 1.000000000000000000 ) ) ;
#4 = APPLICATION_PROTOCOL_DEFINITION ( 'draft international standard', 'automotive_design', 1998, #43 ) ;
#5 = CARTESIAN_POINT ( 'NONE',  ( 0.000000000000000000, 0.000000000000000000, -1.500000000000000000 ) ) ;
#6 = CARTESIAN_POINT ( 'NONE',  ( 0.000000000000000000, 0.000000000000000000, 1.500000000000000000 ) ) ;
#7 = AXIS2_PLACEMENT_3D ( 'NONE', #99, #3, #28 ) ;
#8 =( NAMED_UNIT ( * ) SI_UNIT ( $, .STERADIAN. ) SOLID_ANGLE_UNIT ( ) );
#9 = PRODUCT_DEFINITION ( 'UNKNOWN', '', #21, #22 ) ;
#10 = SURFACE_STYLE_FILL_AREA ( #83 ) ;
#11 = EDGE_LOOP ( 'NONE', ( #69 ) ) ;
#12 = SHAPE_DEFINITION_REPRESENTATION ( #85, #78 ) ;
#13 = STYLED_ITEM ( 'NONE', ( #24 ), #78 ) ;
#14 = ADVANCED_FACE ( 'NONE', ( #105, #27 ), #113, .T. ) ;
#15 = DIRECTION ( 'NONE',  ( 1.000000000000000000, 0.000000000000000000, 0.000000000000000000 ) ) ;
#16 = FILL_AREA_STYLE ('',( #120 ) ) ;
#17 = DIRECTION ( 'NONE',  ( -1.000000000000000000, 0.000000000000000000, 0.000000000000000000 ) ) ;
#18 = FACE_BOUND ( 'NONE', #82, .T. ) ;
#19 = STYLED_ITEM ( 'NONE', ( #107 ), #132 ) ;
#20 = SURFACE_STYLE_USAGE ( .BOTH. , #58 ) ;
#21 = PRODUCT_DEFINITION_FORMATION_WITH_SPECIFIED_SOURCE ( 'ANY', '', #59, .NOT_KNOWN. ) ;
#22 = PRODUCT_DEFINITION_CONTEXT ( 'detailed design', #43, 'design' ) ;
#23 = SURFACE_SIDE_STYLE ('',( #10 ) ) ;
#24 = PRESENTATION_STYLE_ASSIGNMENT (( #71 ) ) ;
#25 = DIRECTION ( 'NONE',  ( 0.000000000000000000, 0.000000000000000000, 1.000000000000000000 ) ) ;
#26 = CARTESIAN_POINT ( 'NONE',  ( 0.000000000000000000, 0.000000000000000000, -1.500000000000000000 ) ) ;
#27 = FACE_OUTER_BOUND ( 'NONE', #61, .T. ) ;
#28 = DIRECTION ( 'NONE',  ( 1.000000000000000000, 0.000000000000000000, 0.000000000000000000 ) ) ;
#29 = VERTEX_POINT ( 'NONE', #127 ) ;
#30 =( GEOMETRIC_REPRESENTATION_CONTEXT ( 3 ) GLOBAL_UNCERTAINTY_ASSIGNED_CONTEXT ( ( #109 ) ) GLOBAL_UNIT_ASSIGNED_CONTEXT ( ( #64, #2, #134 ) ) REPRESENTATION_CONTEXT ( 'NONE', 'WORKASPACE' ) );
#31 = EDGE_LOOP ( 'NONE', ( #80 ) ) ;
#32 = EDGE_LOOP ( 'NONE', ( #47 ) ) ;
#33 = AXIS2_PLACEMENT_3D ( 'NONE', #6, #118, #104 ) ;
#34 = FILL_AREA_STYLE_COLOUR ( '', #39 ) ;
#35 = EDGE_CURVE ( 'NONE', #50, #50, #54, .T. ) ;
#36 = APPLICATION_PROTOCOL_DEFINITION ( 'draft international standard', 'automotive_design', 1998, #89 ) ;
#37 = PRODUCT_CONTEXT ( 'NONE', #89, 'mechanical' ) ;
#38 = CARTESIAN_POINT ( 'NONE',  ( 16.75000000000000000, 0.000000000000000000, -1.500000000000000000 ) ) ;
#39 = COLOUR_RGB ( '',0.8274509803921568096, 0.8392156862745098200, 0.8274509803921568096 ) ;
#40 = SURFACE_STYLE_FILL_AREA ( #16 ) ;
#41 = CARTESIAN_POINT ( 'NONE',  ( 0.000000000000000000, 0.000000000000000000, 1.500000000000000000 ) ) ;
#42 = VERTEX_POINT ( 'NONE', #75 ) ;
#43 = APPLICATION_CONTEXT ( 'automotive_design' ) ;
#44 = CIRCLE ( 'NONE', #1, 16.75000000000000000 ) ;
#45 = DIRECTION ( 'NONE',  ( 1.000000000000000000, 0.000000000000000000, 0.000000000000000000 ) ) ;
#46 = CARTESIAN_POINT ( 'NONE',  ( 0.000000000000000000, 0.000000000000000000, -1.500000000000000000 ) ) ;
#47 = ORIENTED_EDGE ( 'NONE', *, *, #126, .T. ) ;
#48 = AXIS2_PLACEMENT_3D ( 'NONE', #124, #123, #15 ) ;
#49 = PLANE ( 'NONE',  #116 ) ;
#50 = VERTEX_POINT ( 'NONE', #100 ) ;
#51 = AXIS2_PLACEMENT_3D ( 'NONE', #87, #67, #125 ) ;
#52 =( GEOMETRIC_REPRESENTATION_CONTEXT ( 3 ) GLOBAL_UNCERTAINTY_ASSIGNED_CONTEXT ( ( #131 ) ) GLOBAL_UNIT_ASSIGNED_CONTEXT ( ( #119, #73, #76 ) ) REPRESENTATION_CONTEXT ( 'NONE', 'WORKASPACE' ) );
#53 = DIRECTION ( 'NONE',  ( 0.000000000000000000, 0.000000000000000000, 1.000000000000000000 ) ) ;
#54 = CIRCLE ( 'NONE', #94, 9.599999999999999645 ) ;
#55 =( LENGTH_UNIT ( ) NAMED_UNIT ( * ) SI_UNIT ( .MILLI., .METRE. ) );
#56 = FACE_OUTER_BOUND ( 'NONE', #11, .T. ) ;
#57 = ADVANCED_FACE ( 'NONE', ( #63, #88 ), #103, .F. ) ;
#58 = SURFACE_SIDE_STYLE ('',( #40 ) ) ;
#59 = PRODUCT ( '76.05.04.0009', '76.05.04.0009', '', ( #37 ) ) ;
#60 = CLOSED_SHELL ( 'NONE', ( #101, #115, #14, #57 ) ) ;
#61 = EDGE_LOOP ( 'NONE', ( #84 ) ) ;
#62 = ORIENTED_EDGE ( 'NONE', *, *, #35, .F. ) ;
#63 = FACE_OUTER_BOUND ( 'NONE', #31, .T. ) ;
#64 =( LENGTH_UNIT ( ) NAMED_UNIT ( * ) SI_UNIT ( .MILLI., .METRE. ) );
#65 = DIRECTION ( 'NONE',  ( -1.000000000000000000, 0.000000000000000000, 0.000000000000000000 ) ) ;
#66 = PLANE ( 'NONE',  #33 ) ;
#67 = DIRECTION ( 'NONE',  ( 0.000000000000000000, 0.000000000000000000, 1.000000000000000000 ) ) ;
#68 = UNCERTAINTY_MEASURE_WITH_UNIT (LENGTH_MEASURE( 1.000000000000000082E-05 ), #55, 'distance_accuracy_value', 'NONE');
#69 = ORIENTED_EDGE ( 'NONE', *, *, #79, .F. ) ;
#70 = AXIS2_PLACEMENT_3D ( 'NONE', #41, #74, #65 ) ;
#71 = SURFACE_STYLE_USAGE ( .BOTH. , #23 ) ;
#72 = ORIENTED_EDGE ( 'NONE', *, *, #126, .F. ) ;
#73 =( NAMED_UNIT ( * ) PLANE_ANGLE_UNIT ( ) SI_UNIT ( $, .RADIAN. ) );
#74 = DIRECTION ( 'NONE',  ( -0.000000000000000000, -0.000000000000000000, -1.000000000000000000 ) ) ;
#75 = CARTESIAN_POINT ( 'NONE',  ( 16.75000000000000000, 0.000000000000000000, 1.500000000000000000 ) ) ;
#76 =( NAMED_UNIT ( * ) SI_UNIT ( $, .STERADIAN. ) SOLID_ANGLE_UNIT ( ) );
#77 = PRESENTATION_LAYER_ASSIGNMENT (  '', '', ( #19 ) ) ;
#78 = ADVANCED_BREP_SHAPE_REPRESENTATION ( '76.05.04.0009', ( #132, #48 ), #130 ) ;
#79 = EDGE_CURVE ( 'NONE', #90, #90, #44, .T. ) ;
#80 = ORIENTED_EDGE ( 'NONE', *, *, #97, .T. ) ;
#81 = COLOUR_RGB ( '',0.8274509803921568096, 0.8392156862745098200, 0.8274509803921568096 ) ;
#82 = EDGE_LOOP ( 'NONE', ( #95 ) ) ;
#83 = FILL_AREA_STYLE ('',( #34 ) ) ;
#84 = ORIENTED_EDGE ( 'NONE', *, *, #79, .T. ) ;
#85 = PRODUCT_DEFINITION_SHAPE ( 'NONE', 'NONE',  #9 ) ;
#86 = DIRECTION ( 'NONE',  ( -0.000000000000000000, -0.000000000000000000, -1.000000000000000000 ) ) ;
#87 = CARTESIAN_POINT ( 'NONE',  ( 0.000000000000000000, 0.000000000000000000, 1.500000000000000000 ) ) ;
#88 = FACE_OUTER_BOUND ( 'NONE', #111, .T. ) ;
#89 = APPLICATION_CONTEXT ( 'automotive_design' ) ;
#90 = VERTEX_POINT ( 'NONE', #38 ) ;
#91 = AXIS2_PLACEMENT_3D ( 'NONE', #117, #86, #17 ) ;
#92 = FACE_OUTER_BOUND ( 'NONE', #32, .T. ) ;
#93 = PRESENTATION_LAYER_ASSIGNMENT (  '', '', ( #13 ) ) ;
#94 = AXIS2_PLACEMENT_3D ( 'NONE', #5, #25, #45 ) ;
#95 = ORIENTED_EDGE ( 'NONE', *, *, #35, .T. ) ;
#96 = DIRECTION ( 'NONE',  ( 1.000000000000000000, 0.000000000000000000, -0.000000000000000000 ) ) ;
#97 = EDGE_CURVE ( 'NONE', #29, #29, #102, .T. ) ;
#98 = MECHANICAL_DESIGN_GEOMETRIC_PRESENTATION_REPRESENTATION (  '', ( #19 ), #52 ) ;
#99 = CARTESIAN_POINT ( 'NONE',  ( 0.000000000000000000, 0.000000000000000000, 1.500000000000000000 ) ) ;
#100 = CARTESIAN_POINT ( 'NONE',  ( 9.599999999999999645, 0.000000000000000000, -1.500000000000000000 ) ) ;
#101 = ADVANCED_FACE ( 'NONE', ( #92, #106 ), #66, .T. ) ;
#102 = CIRCLE ( 'NONE', #7, 9.599999999999999645 ) ;
#103 = CYLINDRICAL_SURFACE ( 'NONE', #70, 9.599999999999999645 ) ;
#104 = DIRECTION ( 'NONE',  ( 1.000000000000000000, 0.000000000000000000, -0.000000000000000000 ) ) ;
#105 = FACE_OUTER_BOUND ( 'NONE', #112, .T. ) ;
#106 = FACE_BOUND ( 'NONE', #121, .T. ) ;
#107 = PRESENTATION_STYLE_ASSIGNMENT (( #20 ) ) ;
#108 = MECHANICAL_DESIGN_GEOMETRIC_PRESENTATION_REPRESENTATION (  '', ( #13 ), #30 ) ;
#109 = UNCERTAINTY_MEASURE_WITH_UNIT (LENGTH_MEASURE( 1.000000000000000082E-05 ), #64, 'distance_accuracy_value', 'NONE');
#110 = PRODUCT_RELATED_PRODUCT_CATEGORY ( 'part', '', ( #59 ) ) ;
#111 = EDGE_LOOP ( 'NONE', ( #62 ) ) ;
#112 = EDGE_LOOP ( 'NONE', ( #72 ) ) ;
#113 = CYLINDRICAL_SURFACE ( 'NONE', #91, 16.75000000000000000 ) ;
#114 =( NAMED_UNIT ( * ) PLANE_ANGLE_UNIT ( ) SI_UNIT ( $, .RADIAN. ) );
#115 = ADVANCED_FACE ( 'NONE', ( #56, #18 ), #49, .F. ) ;
#116 = AXIS2_PLACEMENT_3D ( 'NONE', #26, #128, #96 ) ;
#117 = CARTESIAN_POINT ( 'NONE',  ( 0.000000000000000000, 0.000000000000000000, 1.500000000000000000 ) ) ;
#118 = DIRECTION ( 'NONE',  ( 0.000000000000000000, 0.000000000000000000, 1.000000000000000000 ) ) ;
#119 =( LENGTH_UNIT ( ) NAMED_UNIT ( * ) SI_UNIT ( .MILLI., .METRE. ) );
#120 = FILL_AREA_STYLE_COLOUR ( '', #81 ) ;
#121 = EDGE_LOOP ( 'NONE', ( #122 ) ) ;
#122 = ORIENTED_EDGE ( 'NONE', *, *, #97, .F. ) ;
#123 = DIRECTION ( 'NONE',  ( 0.000000000000000000, 0.000000000000000000, 1.000000000000000000 ) ) ;
#124 = CARTESIAN_POINT ( 'NONE',  ( 0.000000000000000000, 0.000000000000000000, 0.000000000000000000 ) ) ;
#125 = DIRECTION ( 'NONE',  ( 1.000000000000000000, 0.000000000000000000, 0.000000000000000000 ) ) ;
#126 = EDGE_CURVE ( 'NONE', #42, #42, #133, .T. ) ;
#127 = CARTESIAN_POINT ( 'NONE',  ( 9.599999999999999645, 0.000000000000000000, 1.500000000000000000 ) ) ;
#128 = DIRECTION ( 'NONE',  ( 0.000000000000000000, 0.000000000000000000, 1.000000000000000000 ) ) ;
#129 = DIRECTION ( 'NONE',  ( 1.000000000000000000, 0.000000000000000000, 0.000000000000000000 ) ) ;
#130 =( GEOMETRIC_REPRESENTATION_CONTEXT ( 3 ) GLOBAL_UNCERTAINTY_ASSIGNED_CONTEXT ( ( #68 ) ) GLOBAL_UNIT_ASSIGNED_CONTEXT ( ( #55, #114, #8 ) ) REPRESENTATION_CONTEXT ( 'NONE', 'WORKASPACE' ) );
#131 = UNCERTAINTY_MEASURE_WITH_UNIT (LENGTH_MEASURE( 1.000000000000000082E-05 ), #119, 'distance_accuracy_value', 'NONE');
#132 = MANIFOLD_SOLID_BREP ( 'Boss-Extrude1', #60 ) ;
#133 = CIRCLE ( 'NONE', #51, 16.75000000000000000 ) ;
#134 =( NAMED_UNIT ( * ) SI_UNIT ( $, .STERADIAN. ) SOLID_ANGLE_UNIT ( ) );
ENDSEC;
END-ISO-10303-21;
