ISO-10303-21;
HEADER;
FILE_DESCRIPTION (( 'STEP AP214' ),
    '1' );
FILE_NAME ('76.05.04.0008.step',
    '2021-04-02T17:37:00',
    ( '' ),
    ( '' ),
    'SwSTEP 2.0',
    'SolidWorks 2021',
    '' );
FILE_SCHEMA (( 'AUTOMOTIVE_DESIGN' ));
ENDSEC;

DATA;
#1 = CARTESIAN_POINT ( 'NONE',  ( 0.000000000000000000, 0.000000000000000000, -1.000000000000000000 ) ) ;
#2 = DIRECTION ( 'NONE',  ( 0.000000000000000000, 0.000000000000000000, 1.000000000000000000 ) ) ;
#3 = CARTESIAN_POINT ( 'NONE',  ( 0.000000000000000000, 0.000000000000000000, 1.000000000000000000 ) ) ;
#4 = CYLINDRICAL_SURFACE ( 'NONE', #39, 13.50000000000000000 ) ;
#5 =( LENGTH_UNIT ( ) NAMED_UNIT ( * ) SI_UNIT ( .MILLI., .METRE. ) );
#6 = EDGE_CURVE ( 'NONE', #66, #66, #64, .T. ) ;
#7 = FILL_AREA_STYLE_COLOUR ( '', #86 ) ;
#8 = CIRCLE ( 'NONE', #25, 8.500000000000000000 ) ;
#9 = VERTEX_POINT ( 'NONE', #115 ) ;
#10 = CIRCLE ( 'NONE', #46, 8.500000000000000000 ) ;
#11 = EDGE_LOOP ( 'NONE', ( #105 ) ) ;
#12 = EDGE_LOOP ( 'NONE', ( #76 ) ) ;
#13 = MECHANICAL_DESIGN_GEOMETRIC_PRESENTATION_REPRESENTATION (  '', ( #67 ), #34 ) ;
#14 = EDGE_CURVE ( 'NONE', #79, #79, #10, .T. ) ;
#15 = ADVANCED_FACE ( 'NONE', ( #109, #102 ), #41, .F. ) ;
#16 = EDGE_LOOP ( 'NONE', ( #52 ) ) ;
#17 = DIRECTION ( 'NONE',  ( -1.000000000000000000, 0.000000000000000000, 0.000000000000000000 ) ) ;
#18 = FACE_OUTER_BOUND ( 'NONE', #36, .T. ) ;
#19 = FACE_OUTER_BOUND ( 'NONE', #11, .T. ) ;
#20 = FACE_BOUND ( 'NONE', #27, .T. ) ;
#21 = PLANE ( 'NONE',  #97 ) ;
#22 = SURFACE_STYLE_FILL_AREA ( #33 ) ;
#23 = SHAPE_DEFINITION_REPRESENTATION ( #103, #111 ) ;
#24 = SURFACE_SIDE_STYLE ('',( #22 ) ) ;
#25 = AXIS2_PLACEMENT_3D ( 'NONE', #3, #71, #90 ) ;
#26 = PRESENTATION_LAYER_ASSIGNMENT (  '', '', ( #74 ) ) ;
#27 = EDGE_LOOP ( 'NONE', ( #50 ) ) ;
#28 = ORIENTED_EDGE ( 'NONE', *, *, #14, .T. ) ;
#29 = CARTESIAN_POINT ( 'NONE',  ( 0.000000000000000000, 0.000000000000000000, -1.000000000000000000 ) ) ;
#30 = FILL_AREA_STYLE ('',( #43 ) ) ;
#31 = PRESENTATION_LAYER_ASSIGNMENT (  '', '', ( #67 ) ) ;
#32 = APPLICATION_CONTEXT ( 'automotive_design' ) ;
#33 = FILL_AREA_STYLE ('',( #7 ) ) ;
#34 =( GEOMETRIC_REPRESENTATION_CONTEXT ( 3 ) GLOBAL_UNCERTAINTY_ASSIGNED_CONTEXT ( ( #116 ) ) GLOBAL_UNIT_ASSIGNED_CONTEXT ( ( #5, #83, #49 ) ) REPRESENTATION_CONTEXT ( 'NONE', 'WORKASPACE' ) );
#35 = DIRECTION ( 'NONE',  ( 0.000000000000000000, 0.000000000000000000, 1.000000000000000000 ) ) ;
#36 = EDGE_LOOP ( 'NONE', ( #131 ) ) ;
#37 = AXIS2_PLACEMENT_3D ( 'NONE', #132, #42, #125 ) ;
#38 = PRODUCT_DEFINITION_CONTEXT ( 'detailed design', #32, 'design' ) ;
#39 = AXIS2_PLACEMENT_3D ( 'NONE', #51, #70, #110 ) ;
#40 = DIRECTION ( 'NONE',  ( 0.000000000000000000, 0.000000000000000000, 1.000000000000000000 ) ) ;
#41 = CYLINDRICAL_SURFACE ( 'NONE', #89, 8.500000000000000000 ) ;
#42 = DIRECTION ( 'NONE',  ( 0.000000000000000000, 0.000000000000000000, 1.000000000000000000 ) ) ;
#43 = FILL_AREA_STYLE_COLOUR ( '', #78 ) ;
#44 =( LENGTH_UNIT ( ) NAMED_UNIT ( * ) SI_UNIT ( .MILLI., .METRE. ) );
#45 = APPLICATION_PROTOCOL_DEFINITION ( 'draft international standard', 'automotive_design', 1998, #32 ) ;
#46 = AXIS2_PLACEMENT_3D ( 'NONE', #29, #40, #69 ) ;
#47 = UNCERTAINTY_MEASURE_WITH_UNIT (LENGTH_MEASURE( 1.000000000000000082E-05 ), #44, 'distance_accuracy_value', 'NONE');
#48 = UNCERTAINTY_MEASURE_WITH_UNIT (LENGTH_MEASURE( 1.000000000000000082E-05 ), #61, 'distance_accuracy_value', 'NONE');
#49 =( NAMED_UNIT ( * ) SI_UNIT ( $, .STERADIAN. ) SOLID_ANGLE_UNIT ( ) );
#50 = ORIENTED_EDGE ( 'NONE', *, *, #104, .F. ) ;
#51 = CARTESIAN_POINT ( 'NONE',  ( 0.000000000000000000, 0.000000000000000000, 1.000000000000000000 ) ) ;
#52 = ORIENTED_EDGE ( 'NONE', *, *, #14, .F. ) ;
#53 =( NAMED_UNIT ( * ) PLANE_ANGLE_UNIT ( ) SI_UNIT ( $, .RADIAN. ) );
#54 = APPLICATION_CONTEXT ( 'automotive_design' ) ;
#55 = PRODUCT_DEFINITION_FORMATION_WITH_SPECIFIED_SOURCE ( 'ANY', '', #62, .NOT_KNOWN. ) ;
#56 = FACE_OUTER_BOUND ( 'NONE', #58, .T. ) ;
#57 = PRODUCT_DEFINITION ( 'UNKNOWN', '', #55, #38 ) ;
#58 = EDGE_LOOP ( 'NONE', ( #129 ) ) ;
#59 = PRESENTATION_STYLE_ASSIGNMENT (( #93 ) ) ;
#60 = CLOSED_SHELL ( 'NONE', ( #65, #63, #87, #15 ) ) ;
#61 =( LENGTH_UNIT ( ) NAMED_UNIT ( * ) SI_UNIT ( .MILLI., .METRE. ) );
#62 = PRODUCT ( '76.05.04.0008', '76.05.04.0008', '', ( #133 ) ) ;
#63 = ADVANCED_FACE ( 'NONE', ( #18, #85 ), #92, .F. ) ;
#64 = CIRCLE ( 'NONE', #81, 13.50000000000000000 ) ;
#65 = ADVANCED_FACE ( 'NONE', ( #56, #20 ), #21, .T. ) ;
#66 = VERTEX_POINT ( 'NONE', #128 ) ;
#67 = STYLED_ITEM ( 'NONE', ( #59 ), #77 ) ;
#68 = SURFACE_SIDE_STYLE ('',( #100 ) ) ;
#69 = DIRECTION ( 'NONE',  ( 1.000000000000000000, 0.000000000000000000, 0.000000000000000000 ) ) ;
#70 = DIRECTION ( 'NONE',  ( -0.000000000000000000, -0.000000000000000000, -1.000000000000000000 ) ) ;
#71 = DIRECTION ( 'NONE',  ( 0.000000000000000000, 0.000000000000000000, 1.000000000000000000 ) ) ;
#72 =( NAMED_UNIT ( * ) SI_UNIT ( $, .STERADIAN. ) SOLID_ANGLE_UNIT ( ) );
#73 = SURFACE_STYLE_USAGE ( .BOTH. , #24 ) ;
#74 = STYLED_ITEM ( 'NONE', ( #94 ), #111 ) ;
#75 = CIRCLE ( 'NONE', #88, 13.50000000000000000 ) ;
#76 = ORIENTED_EDGE ( 'NONE', *, *, #104, .T. ) ;
#77 = MANIFOLD_SOLID_BREP ( 'Boss-Extrude1', #60 ) ;
#78 = COLOUR_RGB ( '',0.8274509803921568096, 0.8392156862745098200, 0.8274509803921568096 ) ;
#79 = VERTEX_POINT ( 'NONE', #119 ) ;
#80 = CARTESIAN_POINT ( 'NONE',  ( 0.000000000000000000, 0.000000000000000000, 1.000000000000000000 ) ) ;
#81 = AXIS2_PLACEMENT_3D ( 'NONE', #91, #2, #108 ) ;
#82 = DIRECTION ( 'NONE',  ( 0.000000000000000000, 0.000000000000000000, 1.000000000000000000 ) ) ;
#83 =( NAMED_UNIT ( * ) PLANE_ANGLE_UNIT ( ) SI_UNIT ( $, .RADIAN. ) );
#84 =( NAMED_UNIT ( * ) SI_UNIT ( $, .STERADIAN. ) SOLID_ANGLE_UNIT ( ) );
#85 = FACE_BOUND ( 'NONE', #117, .T. ) ;
#86 = COLOUR_RGB ( '',0.8274509803921568096, 0.8392156862745098200, 0.8274509803921568096 ) ;
#87 = ADVANCED_FACE ( 'NONE', ( #99, #19 ), #4, .T. ) ;
#88 = AXIS2_PLACEMENT_3D ( 'NONE', #1, #82, #123 ) ;
#89 = AXIS2_PLACEMENT_3D ( 'NONE', #80, #120, #17 ) ;
#90 = DIRECTION ( 'NONE',  ( 1.000000000000000000, 0.000000000000000000, 0.000000000000000000 ) ) ;
#91 = CARTESIAN_POINT ( 'NONE',  ( 0.000000000000000000, 0.000000000000000000, 1.000000000000000000 ) ) ;
#92 = PLANE ( 'NONE',  #37 ) ;
#93 = SURFACE_STYLE_USAGE ( .BOTH. , #68 ) ;
#94 = PRESENTATION_STYLE_ASSIGNMENT (( #73 ) ) ;
#95 =( NAMED_UNIT ( * ) PLANE_ANGLE_UNIT ( ) SI_UNIT ( $, .RADIAN. ) );
#96 = CARTESIAN_POINT ( 'NONE',  ( 0.000000000000000000, 0.000000000000000000, 1.000000000000000000 ) ) ;
#97 = AXIS2_PLACEMENT_3D ( 'NONE', #96, #130, #98 ) ;
#98 = DIRECTION ( 'NONE',  ( 1.000000000000000000, 0.000000000000000000, -0.000000000000000000 ) ) ;
#99 = FACE_OUTER_BOUND ( 'NONE', #107, .T. ) ;
#100 = SURFACE_STYLE_FILL_AREA ( #30 ) ;
#101 =( GEOMETRIC_REPRESENTATION_CONTEXT ( 3 ) GLOBAL_UNCERTAINTY_ASSIGNED_CONTEXT ( ( #48 ) ) GLOBAL_UNIT_ASSIGNED_CONTEXT ( ( #61, #95, #72 ) ) REPRESENTATION_CONTEXT ( 'NONE', 'WORKASPACE' ) );
#102 = FACE_OUTER_BOUND ( 'NONE', #16, .T. ) ;
#103 = PRODUCT_DEFINITION_SHAPE ( 'NONE', 'NONE',  #57 ) ;
#104 = EDGE_CURVE ( 'NONE', #9, #9, #8, .T. ) ;
#105 = ORIENTED_EDGE ( 'NONE', *, *, #127, .T. ) ;
#106 = ORIENTED_EDGE ( 'NONE', *, *, #6, .F. ) ;
#107 = EDGE_LOOP ( 'NONE', ( #106 ) ) ;
#108 = DIRECTION ( 'NONE',  ( 1.000000000000000000, 0.000000000000000000, 0.000000000000000000 ) ) ;
#109 = FACE_OUTER_BOUND ( 'NONE', #12, .T. ) ;
#110 = DIRECTION ( 'NONE',  ( -1.000000000000000000, 0.000000000000000000, 0.000000000000000000 ) ) ;
#111 = ADVANCED_BREP_SHAPE_REPRESENTATION ( '76.05.04.0008', ( #77, #121 ), #101 ) ;
#112 =( GEOMETRIC_REPRESENTATION_CONTEXT ( 3 ) GLOBAL_UNCERTAINTY_ASSIGNED_CONTEXT ( ( #47 ) ) GLOBAL_UNIT_ASSIGNED_CONTEXT ( ( #44, #53, #84 ) ) REPRESENTATION_CONTEXT ( 'NONE', 'WORKASPACE' ) );
#113 = DIRECTION ( 'NONE',  ( 1.000000000000000000, 0.000000000000000000, 0.000000000000000000 ) ) ;
#114 = VERTEX_POINT ( 'NONE', #126 ) ;
#115 = CARTESIAN_POINT ( 'NONE',  ( 8.500000000000000000, 0.000000000000000000, 1.000000000000000000 ) ) ;
#116 = UNCERTAINTY_MEASURE_WITH_UNIT (LENGTH_MEASURE( 1.000000000000000082E-05 ), #5, 'distance_accuracy_value', 'NONE');
#117 = EDGE_LOOP ( 'NONE', ( #28 ) ) ;
#118 = MECHANICAL_DESIGN_GEOMETRIC_PRESENTATION_REPRESENTATION (  '', ( #74 ), #112 ) ;
#119 = CARTESIAN_POINT ( 'NONE',  ( 8.500000000000000000, 0.000000000000000000, -1.000000000000000000 ) ) ;
#120 = DIRECTION ( 'NONE',  ( -0.000000000000000000, -0.000000000000000000, -1.000000000000000000 ) ) ;
#121 = AXIS2_PLACEMENT_3D ( 'NONE', #124, #35, #113 ) ;
#122 = PRODUCT_RELATED_PRODUCT_CATEGORY ( 'part', '', ( #62 ) ) ;
#123 = DIRECTION ( 'NONE',  ( 1.000000000000000000, 0.000000000000000000, 0.000000000000000000 ) ) ;
#124 = CARTESIAN_POINT ( 'NONE',  ( 0.000000000000000000, 0.000000000000000000, 0.000000000000000000 ) ) ;
#125 = DIRECTION ( 'NONE',  ( 1.000000000000000000, 0.000000000000000000, -0.000000000000000000 ) ) ;
#126 = CARTESIAN_POINT ( 'NONE',  ( 13.50000000000000000, 0.000000000000000000, -1.000000000000000000 ) ) ;
#127 = EDGE_CURVE ( 'NONE', #114, #114, #75, .T. ) ;
#128 = CARTESIAN_POINT ( 'NONE',  ( 13.50000000000000000, 0.000000000000000000, 1.000000000000000000 ) ) ;
#129 = ORIENTED_EDGE ( 'NONE', *, *, #6, .T. ) ;
#130 = DIRECTION ( 'NONE',  ( 0.000000000000000000, 0.000000000000000000, 1.000000000000000000 ) ) ;
#131 = ORIENTED_EDGE ( 'NONE', *, *, #127, .F. ) ;
#132 = CARTESIAN_POINT ( 'NONE',  ( 0.000000000000000000, 0.000000000000000000, -1.000000000000000000 ) ) ;
#133 = PRODUCT_CONTEXT ( 'NONE', #54, 'mechanical' ) ;
#134 = APPLICATION_PROTOCOL_DEFINITION ( 'draft international standard', 'automotive_design', 1998, #54 ) ;
ENDSEC;
END-ISO-10303-21;
