ISO-10303-21;
HEADER;
FILE_DESCRIPTION (( 'STEP AP214' ),
    '1' );
FILE_NAME ('76.05.04.0006.step',
    '2021-04-02T17:36:57',
    ( '' ),
    ( '' ),
    'SwSTEP 2.0',
    'SolidWorks 2021',
    '' );
FILE_SCHEMA (( 'AUTOMOTIVE_DESIGN' ));
ENDSEC;

DATA;
#1 =( NAMED_UNIT ( * ) PLANE_ANGLE_UNIT ( ) SI_UNIT ( $, .RADIAN. ) );
#2 = EDGE_LOOP ( 'NONE', ( #17 ) ) ;
#3 = PRODUCT_CONTEXT ( 'NONE', #20, 'mechanical' ) ;
#4 = DIRECTION ( 'NONE',  ( 1.000000000000000000, 0.000000000000000000, 0.000000000000000000 ) ) ;
#5 = CARTESIAN_POINT ( 'NONE',  ( 0.000000000000000000, 0.000000000000000000, 1.000000000000000000 ) ) ;
#6 = CARTESIAN_POINT ( 'NONE',  ( 0.000000000000000000, 0.000000000000000000, -1.000000000000000000 ) ) ;
#7 = AXIS2_PLACEMENT_3D ( 'NONE', #5, #86, #99 ) ;
#8 = DIRECTION ( 'NONE',  ( -1.000000000000000000, 0.000000000000000000, 0.000000000000000000 ) ) ;
#9 = EDGE_CURVE ( 'NONE', #93, #93, #72, .T. ) ;
#10 = SHAPE_DEFINITION_REPRESENTATION ( #76, #77 ) ;
#11 = ORIENTED_EDGE ( 'NONE', *, *, #9, .F. ) ;
#12 = STYLED_ITEM ( 'NONE', ( #80 ), #77 ) ;
#13 = EDGE_LOOP ( 'NONE', ( #109 ) ) ;
#14 = CARTESIAN_POINT ( 'NONE',  ( 6.500000000000000888, 0.000000000000000000, 1.000000000000000000 ) ) ;
#15 = EDGE_CURVE ( 'NONE', #40, #40, #56, .T. ) ;
#16 =( NAMED_UNIT ( * ) PLANE_ANGLE_UNIT ( ) SI_UNIT ( $, .RADIAN. ) );
#17 = ORIENTED_EDGE ( 'NONE', *, *, #97, .T. ) ;
#18 = FACE_OUTER_BOUND ( 'NONE', #64, .T. ) ;
#19 = PLANE ( 'NONE',  #129 ) ;
#20 = APPLICATION_CONTEXT ( 'automotive_design' ) ;
#21 = CARTESIAN_POINT ( 'NONE',  ( 6.500000000000000888, 0.000000000000000000, -1.000000000000000000 ) ) ;
#22 = UNCERTAINTY_MEASURE_WITH_UNIT (LENGTH_MEASURE( 1.000000000000000082E-05 ), #41, 'distance_accuracy_value', 'NONE');
#23 = SURFACE_STYLE_USAGE ( .BOTH. , #96 ) ;
#24 = EDGE_LOOP ( 'NONE', ( #11 ) ) ;
#25 = ORIENTED_EDGE ( 'NONE', *, *, #65, .T. ) ;
#26 = ORIENTED_EDGE ( 'NONE', *, *, #9, .T. ) ;
#27 = DIRECTION ( 'NONE',  ( 0.000000000000000000, 0.000000000000000000, 1.000000000000000000 ) ) ;
#28 = PRESENTATION_STYLE_ASSIGNMENT (( #71 ) ) ;
#29 = DIRECTION ( 'NONE',  ( 1.000000000000000000, 0.000000000000000000, -0.000000000000000000 ) ) ;
#30 = COLOUR_RGB ( '',0.8274509803921568096, 0.8392156862745098200, 0.8274509803921568096 ) ;
#31 = EDGE_LOOP ( 'NONE', ( #67 ) ) ;
#32 = STYLED_ITEM ( 'NONE', ( #28 ), #59 ) ;
#33 = SURFACE_STYLE_FILL_AREA ( #51 ) ;
#34 = ORIENTED_EDGE ( 'NONE', *, *, #97, .F. ) ;
#35 = AXIS2_PLACEMENT_3D ( 'NONE', #101, #110, #121 ) ;
#36 = VERTEX_POINT ( 'NONE', #21 ) ;
#37 = DIRECTION ( 'NONE',  ( -0.000000000000000000, -0.000000000000000000, -1.000000000000000000 ) ) ;
#38 = PRESENTATION_LAYER_ASSIGNMENT (  '', '', ( #32 ) ) ;
#39 = DIRECTION ( 'NONE',  ( -1.000000000000000000, 0.000000000000000000, 0.000000000000000000 ) ) ;
#40 = VERTEX_POINT ( 'NONE', #14 ) ;
#41 =( LENGTH_UNIT ( ) NAMED_UNIT ( * ) SI_UNIT ( .MILLI., .METRE. ) );
#42 = CIRCLE ( 'NONE', #113, 6.500000000000000888 ) ;
#43 = APPLICATION_PROTOCOL_DEFINITION ( 'draft international standard', 'automotive_design', 1998, #54 ) ;
#44 = FACE_OUTER_BOUND ( 'NONE', #24, .T. ) ;
#45 = CIRCLE ( 'NONE', #7, 10.00000000000000000 ) ;
#46 = SURFACE_SIDE_STYLE ('',( #92 ) ) ;
#47 = DIRECTION ( 'NONE',  ( 1.000000000000000000, 0.000000000000000000, -0.000000000000000000 ) ) ;
#48 = FILL_AREA_STYLE_COLOUR ( '', #30 ) ;
#49 = PRODUCT_DEFINITION_FORMATION_WITH_SPECIFIED_SOURCE ( 'ANY', '', #63, .NOT_KNOWN. ) ;
#50 = FACE_BOUND ( 'NONE', #13, .T. ) ;
#51 = FILL_AREA_STYLE ('',( #106 ) ) ;
#52 = PRODUCT_DEFINITION_CONTEXT ( 'detailed design', #54, 'design' ) ;
#53 =( GEOMETRIC_REPRESENTATION_CONTEXT ( 3 ) GLOBAL_UNCERTAINTY_ASSIGNED_CONTEXT ( ( #78 ) ) GLOBAL_UNIT_ASSIGNED_CONTEXT ( ( #83, #16, #60 ) ) REPRESENTATION_CONTEXT ( 'NONE', 'WORKASPACE' ) );
#54 = APPLICATION_CONTEXT ( 'automotive_design' ) ;
#55 = EDGE_LOOP ( 'NONE', ( #25 ) ) ;
#56 = CIRCLE ( 'NONE', #35, 6.500000000000000888 ) ;
#57 = ORIENTED_EDGE ( 'NONE', *, *, #65, .F. ) ;
#58 = FACE_OUTER_BOUND ( 'NONE', #68, .T. ) ;
#59 = MANIFOLD_SOLID_BREP ( 'Boss-Extrude1', #128 ) ;
#60 =( NAMED_UNIT ( * ) SI_UNIT ( $, .STERADIAN. ) SOLID_ANGLE_UNIT ( ) );
#61 = DIRECTION ( 'NONE',  ( 0.000000000000000000, 0.000000000000000000, 1.000000000000000000 ) ) ;
#62 = CARTESIAN_POINT ( 'NONE',  ( 0.000000000000000000, 0.000000000000000000, 1.000000000000000000 ) ) ;
#63 = PRODUCT ( '76.05.04.0006', '76.05.04.0006', '', ( #3 ) ) ;
#64 = EDGE_LOOP ( 'NONE', ( #26 ) ) ;
#65 = EDGE_CURVE ( 'NONE', #90, #90, #45, .T. ) ;
#66 = AXIS2_PLACEMENT_3D ( 'NONE', #85, #102, #8 ) ;
#67 = ORIENTED_EDGE ( 'NONE', *, *, #15, .T. ) ;
#68 = EDGE_LOOP ( 'NONE', ( #57 ) ) ;
#69 = DIRECTION ( 'NONE',  ( 0.000000000000000000, 0.000000000000000000, 1.000000000000000000 ) ) ;
#70 = DIRECTION ( 'NONE',  ( 1.000000000000000000, 0.000000000000000000, 0.000000000000000000 ) ) ;
#71 = SURFACE_STYLE_USAGE ( .BOTH. , #46 ) ;
#72 = CIRCLE ( 'NONE', #98, 10.00000000000000000 ) ;
#73 = CYLINDRICAL_SURFACE ( 'NONE', #120, 6.500000000000000888 ) ;
#74 = FACE_OUTER_BOUND ( 'NONE', #119, .T. ) ;
#75 =( NAMED_UNIT ( * ) SI_UNIT ( $, .STERADIAN. ) SOLID_ANGLE_UNIT ( ) );
#76 = PRODUCT_DEFINITION_SHAPE ( 'NONE', 'NONE',  #105 ) ;
#77 = ADVANCED_BREP_SHAPE_REPRESENTATION ( '76.05.04.0006', ( #59, #133 ), #84 ) ;
#78 = UNCERTAINTY_MEASURE_WITH_UNIT (LENGTH_MEASURE( 1.000000000000000082E-05 ), #83, 'distance_accuracy_value', 'NONE');
#79 = APPLICATION_PROTOCOL_DEFINITION ( 'draft international standard', 'automotive_design', 1998, #20 ) ;
#80 = PRESENTATION_STYLE_ASSIGNMENT (( #23 ) ) ;
#81 =( LENGTH_UNIT ( ) NAMED_UNIT ( * ) SI_UNIT ( .MILLI., .METRE. ) );
#82 = CARTESIAN_POINT ( 'NONE',  ( 0.000000000000000000, 0.000000000000000000, -1.000000000000000000 ) ) ;
#83 =( LENGTH_UNIT ( ) NAMED_UNIT ( * ) SI_UNIT ( .MILLI., .METRE. ) );
#84 =( GEOMETRIC_REPRESENTATION_CONTEXT ( 3 ) GLOBAL_UNCERTAINTY_ASSIGNED_CONTEXT ( ( #22 ) ) GLOBAL_UNIT_ASSIGNED_CONTEXT ( ( #41, #87, #75 ) ) REPRESENTATION_CONTEXT ( 'NONE', 'WORKASPACE' ) );
#85 = CARTESIAN_POINT ( 'NONE',  ( 0.000000000000000000, 0.000000000000000000, 1.000000000000000000 ) ) ;
#86 = DIRECTION ( 'NONE',  ( 0.000000000000000000, 0.000000000000000000, 1.000000000000000000 ) ) ;
#87 =( NAMED_UNIT ( * ) PLANE_ANGLE_UNIT ( ) SI_UNIT ( $, .RADIAN. ) );
#88 = DIRECTION ( 'NONE',  ( 1.000000000000000000, 0.000000000000000000, 0.000000000000000000 ) ) ;
#89 = DIRECTION ( 'NONE',  ( 0.000000000000000000, 0.000000000000000000, 1.000000000000000000 ) ) ;
#90 = VERTEX_POINT ( 'NONE', #131 ) ;
#91 = FACE_BOUND ( 'NONE', #2, .T. ) ;
#92 = SURFACE_STYLE_FILL_AREA ( #100 ) ;
#93 = VERTEX_POINT ( 'NONE', #134 ) ;
#94 = ADVANCED_FACE ( 'NONE', ( #111, #74 ), #73, .F. ) ;
#95 =( GEOMETRIC_REPRESENTATION_CONTEXT ( 3 ) GLOBAL_UNCERTAINTY_ASSIGNED_CONTEXT ( ( #107 ) ) GLOBAL_UNIT_ASSIGNED_CONTEXT ( ( #81, #1, #130 ) ) REPRESENTATION_CONTEXT ( 'NONE', 'WORKASPACE' ) );
#96 = SURFACE_SIDE_STYLE ('',( #33 ) ) ;
#97 = EDGE_CURVE ( 'NONE', #36, #36, #42, .T. ) ;
#98 = AXIS2_PLACEMENT_3D ( 'NONE', #6, #61, #4 ) ;
#99 = DIRECTION ( 'NONE',  ( 1.000000000000000000, 0.000000000000000000, 0.000000000000000000 ) ) ;
#100 = FILL_AREA_STYLE ('',( #48 ) ) ;
#101 = CARTESIAN_POINT ( 'NONE',  ( 0.000000000000000000, 0.000000000000000000, 1.000000000000000000 ) ) ;
#102 = DIRECTION ( 'NONE',  ( -0.000000000000000000, -0.000000000000000000, -1.000000000000000000 ) ) ;
#103 = MECHANICAL_DESIGN_GEOMETRIC_PRESENTATION_REPRESENTATION (  '', ( #32 ), #53 ) ;
#104 = PRESENTATION_LAYER_ASSIGNMENT (  '', '', ( #12 ) ) ;
#105 = PRODUCT_DEFINITION ( 'UNKNOWN', '', #49, #52 ) ;
#106 = FILL_AREA_STYLE_COLOUR ( '', #117 ) ;
#107 = UNCERTAINTY_MEASURE_WITH_UNIT (LENGTH_MEASURE( 1.000000000000000082E-05 ), #81, 'distance_accuracy_value', 'NONE');
#108 = CARTESIAN_POINT ( 'NONE',  ( 0.000000000000000000, 0.000000000000000000, 0.000000000000000000 ) ) ;
#109 = ORIENTED_EDGE ( 'NONE', *, *, #15, .F. ) ;
#110 = DIRECTION ( 'NONE',  ( 0.000000000000000000, 0.000000000000000000, 1.000000000000000000 ) ) ;
#111 = FACE_OUTER_BOUND ( 'NONE', #31, .T. ) ;
#112 = ADVANCED_FACE ( 'NONE', ( #44, #91 ), #19, .F. ) ;
#113 = AXIS2_PLACEMENT_3D ( 'NONE', #124, #27, #70 ) ;
#114 = FACE_OUTER_BOUND ( 'NONE', #55, .T. ) ;
#115 = CARTESIAN_POINT ( 'NONE',  ( 0.000000000000000000, 0.000000000000000000, 1.000000000000000000 ) ) ;
#116 = MECHANICAL_DESIGN_GEOMETRIC_PRESENTATION_REPRESENTATION (  '', ( #12 ), #95 ) ;
#117 = COLOUR_RGB ( '',0.8274509803921568096, 0.8392156862745098200, 0.8274509803921568096 ) ;
#118 = PRODUCT_RELATED_PRODUCT_CATEGORY ( 'part', '', ( #63 ) ) ;
#119 = EDGE_LOOP ( 'NONE', ( #34 ) ) ;
#120 = AXIS2_PLACEMENT_3D ( 'NONE', #115, #37, #39 ) ;
#121 = DIRECTION ( 'NONE',  ( 1.000000000000000000, 0.000000000000000000, 0.000000000000000000 ) ) ;
#122 = ADVANCED_FACE ( 'NONE', ( #114, #50 ), #125, .T. ) ;
#123 = DIRECTION ( 'NONE',  ( 0.000000000000000000, 0.000000000000000000, 1.000000000000000000 ) ) ;
#124 = CARTESIAN_POINT ( 'NONE',  ( 0.000000000000000000, 0.000000000000000000, -1.000000000000000000 ) ) ;
#125 = PLANE ( 'NONE',  #126 ) ;
#126 = AXIS2_PLACEMENT_3D ( 'NONE', #62, #69, #29 ) ;
#127 = ADVANCED_FACE ( 'NONE', ( #58, #18 ), #132, .T. ) ;
#128 = CLOSED_SHELL ( 'NONE', ( #122, #112, #127, #94 ) ) ;
#129 = AXIS2_PLACEMENT_3D ( 'NONE', #82, #123, #47 ) ;
#130 =( NAMED_UNIT ( * ) SI_UNIT ( $, .STERADIAN. ) SOLID_ANGLE_UNIT ( ) );
#131 = CARTESIAN_POINT ( 'NONE',  ( 10.00000000000000000, 0.000000000000000000, 1.000000000000000000 ) ) ;
#132 = CYLINDRICAL_SURFACE ( 'NONE', #66, 10.00000000000000000 ) ;
#133 = AXIS2_PLACEMENT_3D ( 'NONE', #108, #89, #88 ) ;
#134 = CARTESIAN_POINT ( 'NONE',  ( 10.00000000000000000, 0.000000000000000000, -1.000000000000000000 ) ) ;
ENDSEC;
END-ISO-10303-21;
