ISO-10303-21;
HEADER;
FILE_DESCRIPTION (( 'STEP AP214' ),
    '1' );
FILE_NAME ('76.05.04.0005.step',
    '2021-04-02T17:36:56',
    ( '' ),
    ( '' ),
    'SwSTEP 2.0',
    'SolidWorks 2021',
    '' );
FILE_SCHEMA (( 'AUTOMOTIVE_DESIGN' ));
ENDSEC;

DATA;
#1 = PRODUCT_CONTEXT ( 'NONE', #11, 'mechanical' ) ;
#2 = ORIENTED_EDGE ( 'NONE', *, *, #96, .F. ) ;
#3 = DIRECTION ( 'NONE',  ( 1.000000000000000000, 0.000000000000000000, -0.000000000000000000 ) ) ;
#4 = EDGE_CURVE ( 'NONE', #22, #22, #33, .T. ) ;
#5 = DIRECTION ( 'NONE',  ( 1.000000000000000000, 0.000000000000000000, 0.000000000000000000 ) ) ;
#6 = AXIS2_PLACEMENT_3D ( 'NONE', #20, #103, #3 ) ;
#7 = FACE_OUTER_BOUND ( 'NONE', #53, .T. ) ;
#8 = CYLINDRICAL_SURFACE ( 'NONE', #28, 9.000000000000000000 ) ;
#9 = UNCERTAINTY_MEASURE_WITH_UNIT (LENGTH_MEASURE( 1.000000000000000082E-05 ), #52, 'distance_accuracy_value', 'NONE');
#10 = MANIFOLD_SOLID_BREP ( 'Boss-Extrude1', #79 ) ;
#11 = APPLICATION_CONTEXT ( 'automotive_design' ) ;
#12 =( NAMED_UNIT ( * ) PLANE_ANGLE_UNIT ( ) SI_UNIT ( $, .RADIAN. ) );
#13 = EDGE_LOOP ( 'NONE', ( #2 ) ) ;
#14 = PRESENTATION_LAYER_ASSIGNMENT (  '', '', ( #35 ) ) ;
#15 = SURFACE_SIDE_STYLE ('',( #32 ) ) ;
#16 = EDGE_LOOP ( 'NONE', ( #112 ) ) ;
#17 = SURFACE_STYLE_FILL_AREA ( #116 ) ;
#18 = DIRECTION ( 'NONE',  ( 0.000000000000000000, 0.000000000000000000, 1.000000000000000000 ) ) ;
#19 = CARTESIAN_POINT ( 'NONE',  ( 0.000000000000000000, 0.000000000000000000, 0.8000000000000000444 ) ) ;
#20 = CARTESIAN_POINT ( 'NONE',  ( 0.000000000000000000, 0.000000000000000000, -0.8000000000000000444 ) ) ;
#21 =( LENGTH_UNIT ( ) NAMED_UNIT ( * ) SI_UNIT ( .MILLI., .METRE. ) );
#22 = VERTEX_POINT ( 'NONE', #61 ) ;
#23 = AXIS2_PLACEMENT_3D ( 'NONE', #19, #95, #134 ) ;
#24 =( NAMED_UNIT ( * ) SI_UNIT ( $, .STERADIAN. ) SOLID_ANGLE_UNIT ( ) );
#25 = FILL_AREA_STYLE_COLOUR ( '', #98 ) ;
#26 = CARTESIAN_POINT ( 'NONE',  ( 0.000000000000000000, 0.000000000000000000, 0.8000000000000000444 ) ) ;
#27 = CIRCLE ( 'NONE', #58, 5.250000000000000000 ) ;
#28 = AXIS2_PLACEMENT_3D ( 'NONE', #38, #126, #45 ) ;
#29 = FACE_BOUND ( 'NONE', #41, .T. ) ;
#30 = UNCERTAINTY_MEASURE_WITH_UNIT (LENGTH_MEASURE( 1.000000000000000082E-05 ), #21, 'distance_accuracy_value', 'NONE');
#31 = CARTESIAN_POINT ( 'NONE',  ( 9.000000000000000000, 0.000000000000000000, 0.8000000000000000444 ) ) ;
#32 = SURFACE_STYLE_FILL_AREA ( #113 ) ;
#33 = CIRCLE ( 'NONE', #62, 5.250000000000000000 ) ;
#34 = DIRECTION ( 'NONE',  ( 0.000000000000000000, 0.000000000000000000, 1.000000000000000000 ) ) ;
#35 = STYLED_ITEM ( 'NONE', ( #111 ), #78 ) ;
#36 =( NAMED_UNIT ( * ) PLANE_ANGLE_UNIT ( ) SI_UNIT ( $, .RADIAN. ) );
#37 = CARTESIAN_POINT ( 'NONE',  ( 0.000000000000000000, 0.000000000000000000, -0.8000000000000000444 ) ) ;
#38 = CARTESIAN_POINT ( 'NONE',  ( 0.000000000000000000, 0.000000000000000000, 0.8000000000000000444 ) ) ;
#39 = MECHANICAL_DESIGN_GEOMETRIC_PRESENTATION_REPRESENTATION (  '', ( #89 ), #106 ) ;
#40 = PRODUCT_RELATED_PRODUCT_CATEGORY ( 'part', '', ( #104 ) ) ;
#41 = EDGE_LOOP ( 'NONE', ( #67 ) ) ;
#42 = PRODUCT_DEFINITION_FORMATION_WITH_SPECIFIED_SOURCE ( 'ANY', '', #104, .NOT_KNOWN. ) ;
#43 = APPLICATION_PROTOCOL_DEFINITION ( 'draft international standard', 'automotive_design', 1998, #59 ) ;
#44 = CARTESIAN_POINT ( 'NONE',  ( 0.000000000000000000, 0.000000000000000000, -0.8000000000000000444 ) ) ;
#45 = DIRECTION ( 'NONE',  ( -1.000000000000000000, 0.000000000000000000, 0.000000000000000000 ) ) ;
#46 = FACE_OUTER_BOUND ( 'NONE', #123, .T. ) ;
#47 = VERTEX_POINT ( 'NONE', #64 ) ;
#48 = COLOUR_RGB ( '',0.8274509803921568096, 0.8392156862745098200, 0.8274509803921568096 ) ;
#49 = DIRECTION ( 'NONE',  ( 1.000000000000000000, 0.000000000000000000, 0.000000000000000000 ) ) ;
#50 =( NAMED_UNIT ( * ) PLANE_ANGLE_UNIT ( ) SI_UNIT ( $, .RADIAN. ) );
#51 = AXIS2_PLACEMENT_3D ( 'NONE', #70, #117, #57 ) ;
#52 =( LENGTH_UNIT ( ) NAMED_UNIT ( * ) SI_UNIT ( .MILLI., .METRE. ) );
#53 = EDGE_LOOP ( 'NONE', ( #115 ) ) ;
#54 = VERTEX_POINT ( 'NONE', #75 ) ;
#55 = SURFACE_SIDE_STYLE ('',( #17 ) ) ;
#56 =( GEOMETRIC_REPRESENTATION_CONTEXT ( 3 ) GLOBAL_UNCERTAINTY_ASSIGNED_CONTEXT ( ( #9 ) ) GLOBAL_UNIT_ASSIGNED_CONTEXT ( ( #52, #50, #86 ) ) REPRESENTATION_CONTEXT ( 'NONE', 'WORKASPACE' ) );
#57 = DIRECTION ( 'NONE',  ( -1.000000000000000000, 0.000000000000000000, 0.000000000000000000 ) ) ;
#58 = AXIS2_PLACEMENT_3D ( 'NONE', #44, #73, #107 ) ;
#59 = APPLICATION_CONTEXT ( 'automotive_design' ) ;
#60 = FACE_OUTER_BOUND ( 'NONE', #65, .T. ) ;
#61 = CARTESIAN_POINT ( 'NONE',  ( 5.250000000000000000, 0.000000000000000000, 0.8000000000000000444 ) ) ;
#62 = AXIS2_PLACEMENT_3D ( 'NONE', #130, #34, #124 ) ;
#63 = AXIS2_PLACEMENT_3D ( 'NONE', #99, #87, #49 ) ;
#64 = CARTESIAN_POINT ( 'NONE',  ( 9.000000000000000000, 0.000000000000000000, -0.8000000000000000444 ) ) ;
#65 = EDGE_LOOP ( 'NONE', ( #128 ) ) ;
#66 = CIRCLE ( 'NONE', #71, 9.000000000000000000 ) ;
#67 = ORIENTED_EDGE ( 'NONE', *, *, #132, .T. ) ;
#68 = FILL_AREA_STYLE_COLOUR ( '', #48 ) ;
#69 = PRODUCT_DEFINITION ( 'UNKNOWN', '', #42, #91 ) ;
#70 = CARTESIAN_POINT ( 'NONE',  ( 0.000000000000000000, 0.000000000000000000, 0.8000000000000000444 ) ) ;
#71 = AXIS2_PLACEMENT_3D ( 'NONE', #37, #81, #5 ) ;
#72 = PLANE ( 'NONE',  #23 ) ;
#73 = DIRECTION ( 'NONE',  ( 0.000000000000000000, 0.000000000000000000, 1.000000000000000000 ) ) ;
#74 = SHAPE_DEFINITION_REPRESENTATION ( #109, #78 ) ;
#75 = CARTESIAN_POINT ( 'NONE',  ( 5.250000000000000000, 0.000000000000000000, -0.8000000000000000444 ) ) ;
#76 = SURFACE_STYLE_USAGE ( .BOTH. , #15 ) ;
#77 = ORIENTED_EDGE ( 'NONE', *, *, #132, .F. ) ;
#78 = ADVANCED_BREP_SHAPE_REPRESENTATION ( '76.05.04.0005', ( #10, #63 ), #56 ) ;
#79 = CLOSED_SHELL ( 'NONE', ( #90, #121, #108, #129 ) ) ;
#80 =( NAMED_UNIT ( * ) SI_UNIT ( $, .STERADIAN. ) SOLID_ANGLE_UNIT ( ) );
#81 = DIRECTION ( 'NONE',  ( 0.000000000000000000, 0.000000000000000000, 1.000000000000000000 ) ) ;
#82 = CYLINDRICAL_SURFACE ( 'NONE', #51, 5.250000000000000000 ) ;
#83 = EDGE_CURVE ( 'NONE', #127, #127, #110, .T. ) ;
#84 =( GEOMETRIC_REPRESENTATION_CONTEXT ( 3 ) GLOBAL_UNCERTAINTY_ASSIGNED_CONTEXT ( ( #120 ) ) GLOBAL_UNIT_ASSIGNED_CONTEXT ( ( #122, #12, #24 ) ) REPRESENTATION_CONTEXT ( 'NONE', 'WORKASPACE' ) );
#85 = PRESENTATION_LAYER_ASSIGNMENT (  '', '', ( #89 ) ) ;
#86 =( NAMED_UNIT ( * ) SI_UNIT ( $, .STERADIAN. ) SOLID_ANGLE_UNIT ( ) );
#87 = DIRECTION ( 'NONE',  ( 0.000000000000000000, 0.000000000000000000, 1.000000000000000000 ) ) ;
#88 = EDGE_LOOP ( 'NONE', ( #114 ) ) ;
#89 = STYLED_ITEM ( 'NONE', ( #92 ), #10 ) ;
#90 = ADVANCED_FACE ( 'NONE', ( #60, #118 ), #72, .T. ) ;
#91 = PRODUCT_DEFINITION_CONTEXT ( 'detailed design', #59, 'design' ) ;
#92 = PRESENTATION_STYLE_ASSIGNMENT (( #133 ) ) ;
#93 = MECHANICAL_DESIGN_GEOMETRIC_PRESENTATION_REPRESENTATION (  '', ( #35 ), #84 ) ;
#94 = FACE_OUTER_BOUND ( 'NONE', #13, .T. ) ;
#95 = DIRECTION ( 'NONE',  ( 0.000000000000000000, 0.000000000000000000, 1.000000000000000000 ) ) ;
#96 = EDGE_CURVE ( 'NONE', #47, #47, #66, .T. ) ;
#97 = APPLICATION_PROTOCOL_DEFINITION ( 'draft international standard', 'automotive_design', 1998, #11 ) ;
#98 = COLOUR_RGB ( '',0.8274509803921568096, 0.8392156862745098200, 0.8274509803921568096 ) ;
#99 = CARTESIAN_POINT ( 'NONE',  ( 0.000000000000000000, 0.000000000000000000, 0.000000000000000000 ) ) ;
#100 = EDGE_LOOP ( 'NONE', ( #131 ) ) ;
#101 = FACE_OUTER_BOUND ( 'NONE', #88, .T. ) ;
#102 = AXIS2_PLACEMENT_3D ( 'NONE', #26, #18, #125 ) ;
#103 = DIRECTION ( 'NONE',  ( 0.000000000000000000, 0.000000000000000000, 1.000000000000000000 ) ) ;
#104 = PRODUCT ( '76.05.04.0005', '76.05.04.0005', '', ( #1 ) ) ;
#105 = FACE_OUTER_BOUND ( 'NONE', #16, .T. ) ;
#106 =( GEOMETRIC_REPRESENTATION_CONTEXT ( 3 ) GLOBAL_UNCERTAINTY_ASSIGNED_CONTEXT ( ( #30 ) ) GLOBAL_UNIT_ASSIGNED_CONTEXT ( ( #21, #36, #80 ) ) REPRESENTATION_CONTEXT ( 'NONE', 'WORKASPACE' ) );
#107 = DIRECTION ( 'NONE',  ( 1.000000000000000000, 0.000000000000000000, 0.000000000000000000 ) ) ;
#108 = ADVANCED_FACE ( 'NONE', ( #105, #101 ), #8, .T. ) ;
#109 = PRODUCT_DEFINITION_SHAPE ( 'NONE', 'NONE',  #69 ) ;
#110 = CIRCLE ( 'NONE', #102, 9.000000000000000000 ) ;
#111 = PRESENTATION_STYLE_ASSIGNMENT (( #76 ) ) ;
#112 = ORIENTED_EDGE ( 'NONE', *, *, #83, .F. ) ;
#113 = FILL_AREA_STYLE ('',( #25 ) ) ;
#114 = ORIENTED_EDGE ( 'NONE', *, *, #96, .T. ) ;
#115 = ORIENTED_EDGE ( 'NONE', *, *, #4, .T. ) ;
#116 = FILL_AREA_STYLE ('',( #68 ) ) ;
#117 = DIRECTION ( 'NONE',  ( -0.000000000000000000, -0.000000000000000000, -1.000000000000000000 ) ) ;
#118 = FACE_BOUND ( 'NONE', #100, .T. ) ;
#119 = PLANE ( 'NONE',  #6 ) ;
#120 = UNCERTAINTY_MEASURE_WITH_UNIT (LENGTH_MEASURE( 1.000000000000000082E-05 ), #122, 'distance_accuracy_value', 'NONE');
#121 = ADVANCED_FACE ( 'NONE', ( #94, #29 ), #119, .F. ) ;
#122 =( LENGTH_UNIT ( ) NAMED_UNIT ( * ) SI_UNIT ( .MILLI., .METRE. ) );
#123 = EDGE_LOOP ( 'NONE', ( #77 ) ) ;
#124 = DIRECTION ( 'NONE',  ( 1.000000000000000000, 0.000000000000000000, 0.000000000000000000 ) ) ;
#125 = DIRECTION ( 'NONE',  ( 1.000000000000000000, 0.000000000000000000, 0.000000000000000000 ) ) ;
#126 = DIRECTION ( 'NONE',  ( -0.000000000000000000, -0.000000000000000000, -1.000000000000000000 ) ) ;
#127 = VERTEX_POINT ( 'NONE', #31 ) ;
#128 = ORIENTED_EDGE ( 'NONE', *, *, #83, .T. ) ;
#129 = ADVANCED_FACE ( 'NONE', ( #7, #46 ), #82, .F. ) ;
#130 = CARTESIAN_POINT ( 'NONE',  ( 0.000000000000000000, 0.000000000000000000, 0.8000000000000000444 ) ) ;
#131 = ORIENTED_EDGE ( 'NONE', *, *, #4, .F. ) ;
#132 = EDGE_CURVE ( 'NONE', #54, #54, #27, .T. ) ;
#133 = SURFACE_STYLE_USAGE ( .BOTH. , #55 ) ;
#134 = DIRECTION ( 'NONE',  ( 1.000000000000000000, 0.000000000000000000, -0.000000000000000000 ) ) ;
ENDSEC;
END-ISO-10303-21;
