ISO-10303-21;
HEADER;
FILE_DESCRIPTION (( 'STEP AP214' ),
    '1' );
FILE_NAME ('76.05.04.0004.step',
    '2021-04-02T17:36:55',
    ( '' ),
    ( '' ),
    'SwSTEP 2.0',
    'SolidWorks 2021',
    '' );
FILE_SCHEMA (( 'AUTOMOTIVE_DESIGN' ));
ENDSEC;

DATA;
#1 = DIRECTION ( 'NONE',  ( 0.000000000000000000, 0.000000000000000000, 1.000000000000000000 ) ) ;
#2 = FILL_AREA_STYLE_COLOUR ( '', #84 ) ;
#3 = DIRECTION ( 'NONE',  ( 0.000000000000000000, 0.000000000000000000, 1.000000000000000000 ) ) ;
#4 = DIRECTION ( 'NONE',  ( 0.000000000000000000, 0.000000000000000000, 1.000000000000000000 ) ) ;
#5 = DIRECTION ( 'NONE',  ( -1.000000000000000000, 0.000000000000000000, 0.000000000000000000 ) ) ;
#6 = FILL_AREA_STYLE_COLOUR ( '', #7 ) ;
#7 = COLOUR_RGB ( '',0.8274509803921568096, 0.8392156862745098200, 0.8274509803921568096 ) ;
#8 = PRODUCT ( '76.05.04.0004', '76.05.04.0004', '', ( #62 ) ) ;
#9 = SURFACE_STYLE_USAGE ( .BOTH. , #35 ) ;
#10 = ORIENTED_EDGE ( 'NONE', *, *, #104, .F. ) ;
#11 = ORIENTED_EDGE ( 'NONE', *, *, #115, .F. ) ;
#12 = DIRECTION ( 'NONE',  ( 0.000000000000000000, 0.000000000000000000, 1.000000000000000000 ) ) ;
#13 = AXIS2_PLACEMENT_3D ( 'NONE', #119, #12, #55 ) ;
#14 = CARTESIAN_POINT ( 'NONE',  ( 0.000000000000000000, 0.000000000000000000, -0.8000000000000000444 ) ) ;
#15 = FACE_BOUND ( 'NONE', #92, .T. ) ;
#16 =( GEOMETRIC_REPRESENTATION_CONTEXT ( 3 ) GLOBAL_UNCERTAINTY_ASSIGNED_CONTEXT ( ( #34 ) ) GLOBAL_UNIT_ASSIGNED_CONTEXT ( ( #123, #60, #85 ) ) REPRESENTATION_CONTEXT ( 'NONE', 'WORKASPACE' ) );
#17 = PRODUCT_DEFINITION ( 'UNKNOWN', '', #100, #125 ) ;
#18 = FACE_OUTER_BOUND ( 'NONE', #126, .T. ) ;
#19 = SURFACE_STYLE_USAGE ( .BOTH. , #120 ) ;
#20 = PRESENTATION_LAYER_ASSIGNMENT (  '', '', ( #116 ) ) ;
#21 = DIRECTION ( 'NONE',  ( 0.000000000000000000, 0.000000000000000000, 1.000000000000000000 ) ) ;
#22 =( NAMED_UNIT ( * ) PLANE_ANGLE_UNIT ( ) SI_UNIT ( $, .RADIAN. ) );
#23 = AXIS2_PLACEMENT_3D ( 'NONE', #132, #97, #5 ) ;
#24 = APPLICATION_CONTEXT ( 'automotive_design' ) ;
#25 = AXIS2_PLACEMENT_3D ( 'NONE', #14, #99, #109 ) ;
#26 = ORIENTED_EDGE ( 'NONE', *, *, #104, .T. ) ;
#27 = ADVANCED_FACE ( 'NONE', ( #18, #53 ), #93, .F. ) ;
#28 = CIRCLE ( 'NONE', #13, 7.500000000000000000 ) ;
#29 = ORIENTED_EDGE ( 'NONE', *, *, #115, .T. ) ;
#30 = CARTESIAN_POINT ( 'NONE',  ( 7.500000000000000000, 0.000000000000000000, -0.8000000000000000444 ) ) ;
#31 = FACE_OUTER_BOUND ( 'NONE', #70, .T. ) ;
#32 = CARTESIAN_POINT ( 'NONE',  ( 0.000000000000000000, 0.000000000000000000, 0.8000000000000000444 ) ) ;
#33 = VERTEX_POINT ( 'NONE', #74 ) ;
#34 = UNCERTAINTY_MEASURE_WITH_UNIT (LENGTH_MEASURE( 1.000000000000000082E-05 ), #123, 'distance_accuracy_value', 'NONE');
#35 = SURFACE_SIDE_STYLE ('',( #49 ) ) ;
#36 = AXIS2_PLACEMENT_3D ( 'NONE', #32, #96, #82 ) ;
#37 = EDGE_CURVE ( 'NONE', #87, #87, #28, .T. ) ;
#38 = EDGE_LOOP ( 'NONE', ( #29 ) ) ;
#39 = UNCERTAINTY_MEASURE_WITH_UNIT (LENGTH_MEASURE( 1.000000000000000082E-05 ), #86, 'distance_accuracy_value', 'NONE');
#40 = DIRECTION ( 'NONE',  ( 1.000000000000000000, 0.000000000000000000, -0.000000000000000000 ) ) ;
#41 = AXIS2_PLACEMENT_3D ( 'NONE', #134, #1, #40 ) ;
#42 = CARTESIAN_POINT ( 'NONE',  ( 4.200000000000000178, 0.000000000000000000, 0.8000000000000000444 ) ) ;
#43 = MECHANICAL_DESIGN_GEOMETRIC_PRESENTATION_REPRESENTATION (  '', ( #91 ), #65 ) ;
#44 = FILL_AREA_STYLE ('',( #6 ) ) ;
#45 = DIRECTION ( 'NONE',  ( 1.000000000000000000, 0.000000000000000000, 0.000000000000000000 ) ) ;
#46 = AXIS2_PLACEMENT_3D ( 'NONE', #106, #4, #129 ) ;
#47 = DIRECTION ( 'NONE',  ( 1.000000000000000000, 0.000000000000000000, 0.000000000000000000 ) ) ;
#48 = SHAPE_DEFINITION_REPRESENTATION ( #114, #58 ) ;
#49 = SURFACE_STYLE_FILL_AREA ( #44 ) ;
#50 =( LENGTH_UNIT ( ) NAMED_UNIT ( * ) SI_UNIT ( .MILLI., .METRE. ) );
#51 = EDGE_LOOP ( 'NONE', ( #118 ) ) ;
#52 = AXIS2_PLACEMENT_3D ( 'NONE', #101, #21, #47 ) ;
#53 = FACE_BOUND ( 'NONE', #71, .T. ) ;
#54 = MANIFOLD_SOLID_BREP ( 'Boss-Extrude1', #90 ) ;
#55 = DIRECTION ( 'NONE',  ( 1.000000000000000000, 0.000000000000000000, 0.000000000000000000 ) ) ;
#56 = ADVANCED_FACE ( 'NONE', ( #59, #31 ), #94, .F. ) ;
#57 = CARTESIAN_POINT ( 'NONE',  ( 0.000000000000000000, 0.000000000000000000, 0.8000000000000000444 ) ) ;
#58 = ADVANCED_BREP_SHAPE_REPRESENTATION ( '76.05.04.0004', ( #54, #52 ), #16 ) ;
#59 = FACE_OUTER_BOUND ( 'NONE', #38, .T. ) ;
#60 =( NAMED_UNIT ( * ) PLANE_ANGLE_UNIT ( ) SI_UNIT ( $, .RADIAN. ) );
#61 = PRESENTATION_LAYER_ASSIGNMENT (  '', '', ( #91 ) ) ;
#62 = PRODUCT_CONTEXT ( 'NONE', #24, 'mechanical' ) ;
#63 = CARTESIAN_POINT ( 'NONE',  ( 7.500000000000000000, 0.000000000000000000, 0.8000000000000000444 ) ) ;
#64 = AXIS2_PLACEMENT_3D ( 'NONE', #124, #122, #95 ) ;
#65 =( GEOMETRIC_REPRESENTATION_CONTEXT ( 3 ) GLOBAL_UNCERTAINTY_ASSIGNED_CONTEXT ( ( #112 ) ) GLOBAL_UNIT_ASSIGNED_CONTEXT ( ( #50, #22, #113 ) ) REPRESENTATION_CONTEXT ( 'NONE', 'WORKASPACE' ) );
#66 =( NAMED_UNIT ( * ) PLANE_ANGLE_UNIT ( ) SI_UNIT ( $, .RADIAN. ) );
#67 = FACE_OUTER_BOUND ( 'NONE', #51, .T. ) ;
#68 = VERTEX_POINT ( 'NONE', #30 ) ;
#69 =( GEOMETRIC_REPRESENTATION_CONTEXT ( 3 ) GLOBAL_UNCERTAINTY_ASSIGNED_CONTEXT ( ( #39 ) ) GLOBAL_UNIT_ASSIGNED_CONTEXT ( ( #86, #66, #130 ) ) REPRESENTATION_CONTEXT ( 'NONE', 'WORKASPACE' ) );
#70 = EDGE_LOOP ( 'NONE', ( #79 ) ) ;
#71 = EDGE_LOOP ( 'NONE', ( #105 ) ) ;
#72 = PRODUCT_RELATED_PRODUCT_CATEGORY ( 'part', '', ( #8 ) ) ;
#73 = EDGE_LOOP ( 'NONE', ( #127 ) ) ;
#74 = CARTESIAN_POINT ( 'NONE',  ( 4.200000000000000178, 0.000000000000000000, -0.8000000000000000444 ) ) ;
#75 = AXIS2_PLACEMENT_3D ( 'NONE', #57, #3, #45 ) ;
#76 = VERTEX_POINT ( 'NONE', #42 ) ;
#77 = PLANE ( 'NONE',  #46 ) ;
#78 = APPLICATION_CONTEXT ( 'automotive_design' ) ;
#79 = ORIENTED_EDGE ( 'NONE', *, *, #88, .F. ) ;
#80 = ADVANCED_FACE ( 'NONE', ( #67, #110 ), #108, .T. ) ;
#81 = FILL_AREA_STYLE ('',( #2 ) ) ;
#82 = DIRECTION ( 'NONE',  ( -1.000000000000000000, 0.000000000000000000, 0.000000000000000000 ) ) ;
#83 = FACE_OUTER_BOUND ( 'NONE', #73, .T. ) ;
#84 = COLOUR_RGB ( '',0.8274509803921568096, 0.8392156862745098200, 0.8274509803921568096 ) ;
#85 =( NAMED_UNIT ( * ) SI_UNIT ( $, .STERADIAN. ) SOLID_ANGLE_UNIT ( ) );
#86 =( LENGTH_UNIT ( ) NAMED_UNIT ( * ) SI_UNIT ( .MILLI., .METRE. ) );
#87 = VERTEX_POINT ( 'NONE', #63 ) ;
#88 = EDGE_CURVE ( 'NONE', #33, #33, #89, .T. ) ;
#89 = CIRCLE ( 'NONE', #64, 4.200000000000000178 ) ;
#90 = CLOSED_SHELL ( 'NONE', ( #111, #27, #80, #56 ) ) ;
#91 = STYLED_ITEM ( 'NONE', ( #133 ), #58 ) ;
#92 = EDGE_LOOP ( 'NONE', ( #11 ) ) ;
#93 = PLANE ( 'NONE',  #41 ) ;
#94 = CYLINDRICAL_SURFACE ( 'NONE', #23, 4.200000000000000178 ) ;
#95 = DIRECTION ( 'NONE',  ( 1.000000000000000000, 0.000000000000000000, 0.000000000000000000 ) ) ;
#96 = DIRECTION ( 'NONE',  ( -0.000000000000000000, -0.000000000000000000, -1.000000000000000000 ) ) ;
#97 = DIRECTION ( 'NONE',  ( -0.000000000000000000, -0.000000000000000000, -1.000000000000000000 ) ) ;
#98 = APPLICATION_PROTOCOL_DEFINITION ( 'draft international standard', 'automotive_design', 1998, #78 ) ;
#99 = DIRECTION ( 'NONE',  ( 0.000000000000000000, 0.000000000000000000, 1.000000000000000000 ) ) ;
#100 = PRODUCT_DEFINITION_FORMATION_WITH_SPECIFIED_SOURCE ( 'ANY', '', #8, .NOT_KNOWN. ) ;
#101 = CARTESIAN_POINT ( 'NONE',  ( 0.000000000000000000, 0.000000000000000000, 0.000000000000000000 ) ) ;
#102 = PRESENTATION_STYLE_ASSIGNMENT (( #19 ) ) ;
#103 = CIRCLE ( 'NONE', #75, 4.200000000000000178 ) ;
#104 = EDGE_CURVE ( 'NONE', #68, #68, #107, .T. ) ;
#105 = ORIENTED_EDGE ( 'NONE', *, *, #88, .T. ) ;
#106 = CARTESIAN_POINT ( 'NONE',  ( 0.000000000000000000, 0.000000000000000000, 0.8000000000000000444 ) ) ;
#107 = CIRCLE ( 'NONE', #25, 7.500000000000000000 ) ;
#108 = CYLINDRICAL_SURFACE ( 'NONE', #36, 7.500000000000000000 ) ;
#109 = DIRECTION ( 'NONE',  ( 1.000000000000000000, 0.000000000000000000, 0.000000000000000000 ) ) ;
#110 = FACE_OUTER_BOUND ( 'NONE', #117, .T. ) ;
#111 = ADVANCED_FACE ( 'NONE', ( #83, #15 ), #77, .T. ) ;
#112 = UNCERTAINTY_MEASURE_WITH_UNIT (LENGTH_MEASURE( 1.000000000000000082E-05 ), #50, 'distance_accuracy_value', 'NONE');
#113 =( NAMED_UNIT ( * ) SI_UNIT ( $, .STERADIAN. ) SOLID_ANGLE_UNIT ( ) );
#114 = PRODUCT_DEFINITION_SHAPE ( 'NONE', 'NONE',  #17 ) ;
#115 = EDGE_CURVE ( 'NONE', #76, #76, #103, .T. ) ;
#116 = STYLED_ITEM ( 'NONE', ( #102 ), #54 ) ;
#117 = EDGE_LOOP ( 'NONE', ( #26 ) ) ;
#118 = ORIENTED_EDGE ( 'NONE', *, *, #37, .F. ) ;
#119 = CARTESIAN_POINT ( 'NONE',  ( 0.000000000000000000, 0.000000000000000000, 0.8000000000000000444 ) ) ;
#120 = SURFACE_SIDE_STYLE ('',( #128 ) ) ;
#121 = MECHANICAL_DESIGN_GEOMETRIC_PRESENTATION_REPRESENTATION (  '', ( #116 ), #69 ) ;
#122 = DIRECTION ( 'NONE',  ( 0.000000000000000000, 0.000000000000000000, 1.000000000000000000 ) ) ;
#123 =( LENGTH_UNIT ( ) NAMED_UNIT ( * ) SI_UNIT ( .MILLI., .METRE. ) );
#124 = CARTESIAN_POINT ( 'NONE',  ( 0.000000000000000000, 0.000000000000000000, -0.8000000000000000444 ) ) ;
#125 = PRODUCT_DEFINITION_CONTEXT ( 'detailed design', #78, 'design' ) ;
#126 = EDGE_LOOP ( 'NONE', ( #10 ) ) ;
#127 = ORIENTED_EDGE ( 'NONE', *, *, #37, .T. ) ;
#128 = SURFACE_STYLE_FILL_AREA ( #81 ) ;
#129 = DIRECTION ( 'NONE',  ( 1.000000000000000000, 0.000000000000000000, -0.000000000000000000 ) ) ;
#130 =( NAMED_UNIT ( * ) SI_UNIT ( $, .STERADIAN. ) SOLID_ANGLE_UNIT ( ) );
#131 = APPLICATION_PROTOCOL_DEFINITION ( 'draft international standard', 'automotive_design', 1998, #24 ) ;
#132 = CARTESIAN_POINT ( 'NONE',  ( 0.000000000000000000, 0.000000000000000000, 0.8000000000000000444 ) ) ;
#133 = PRESENTATION_STYLE_ASSIGNMENT (( #9 ) ) ;
#134 = CARTESIAN_POINT ( 'NONE',  ( 0.000000000000000000, 0.000000000000000000, -0.8000000000000000444 ) ) ;
ENDSEC;
END-ISO-10303-21;
