ISO-10303-21;
HEADER;
FILE_DESCRIPTION (( 'STEP AP214' ),
    '1' );
FILE_NAME ('76.05.04.0003.step',
    '2021-04-02T17:36:54',
    ( '' ),
    ( '' ),
    'SwSTEP 2.0',
    'SolidWorks 2021',
    '' );
FILE_SCHEMA (( 'AUTOMOTIVE_DESIGN' ));
ENDSEC;

DATA;
#1 = ADVANCED_FACE ( 'NONE', ( #109, #130 ), #65, .F. ) ;
#2 = ADVANCED_BREP_SHAPE_REPRESENTATION ( '76.05.04.0003', ( #55, #53 ), #75 ) ;
#3 = DIRECTION ( 'NONE',  ( 1.000000000000000000, 0.000000000000000000, 0.000000000000000000 ) ) ;
#4 = COLOUR_RGB ( '',0.8274509803921568096, 0.8392156862745098200, 0.8274509803921568096 ) ;
#5 = ORIENTED_EDGE ( 'NONE', *, *, #40, .F. ) ;
#6 = DIRECTION ( 'NONE',  ( -0.000000000000000000, -0.000000000000000000, -1.000000000000000000 ) ) ;
#7 = DIRECTION ( 'NONE',  ( 1.000000000000000000, 0.000000000000000000, 0.000000000000000000 ) ) ;
#8 = CIRCLE ( 'NONE', #41, 3.200000000000000178 ) ;
#9 = DIRECTION ( 'NONE',  ( -1.000000000000000000, 0.000000000000000000, 0.000000000000000000 ) ) ;
#10 =( LENGTH_UNIT ( ) NAMED_UNIT ( * ) SI_UNIT ( .MILLI., .METRE. ) );
#11 =( NAMED_UNIT ( * ) PLANE_ANGLE_UNIT ( ) SI_UNIT ( $, .RADIAN. ) );
#12 = FACE_OUTER_BOUND ( 'NONE', #112, .T. ) ;
#13 = DIRECTION ( 'NONE',  ( 0.000000000000000000, 0.000000000000000000, 1.000000000000000000 ) ) ;
#14 = CARTESIAN_POINT ( 'NONE',  ( 5.500000000000000000, 0.000000000000000000, -0.8000000000000000444 ) ) ;
#15 = AXIS2_PLACEMENT_3D ( 'NONE', #35, #54, #26 ) ;
#16 = EDGE_CURVE ( 'NONE', #96, #96, #8, .T. ) ;
#17 = CARTESIAN_POINT ( 'NONE',  ( 0.000000000000000000, 0.000000000000000000, 0.000000000000000000 ) ) ;
#18 = CIRCLE ( 'NONE', #15, 5.500000000000000000 ) ;
#19 = APPLICATION_PROTOCOL_DEFINITION ( 'draft international standard', 'automotive_design', 1998, #80 ) ;
#20 = SURFACE_STYLE_USAGE ( .BOTH. , #39 ) ;
#21 = CARTESIAN_POINT ( 'NONE',  ( 0.000000000000000000, 0.000000000000000000, 0.8000000000000000444 ) ) ;
#22 = UNCERTAINTY_MEASURE_WITH_UNIT (LENGTH_MEASURE( 1.000000000000000082E-05 ), #61, 'distance_accuracy_value', 'NONE');
#23 = APPLICATION_CONTEXT ( 'automotive_design' ) ;
#24 = PLANE ( 'NONE',  #127 ) ;
#25 = CLOSED_SHELL ( 'NONE', ( #95, #129, #70, #1 ) ) ;
#26 = DIRECTION ( 'NONE',  ( 1.000000000000000000, 0.000000000000000000, 0.000000000000000000 ) ) ;
#27 = CARTESIAN_POINT ( 'NONE',  ( 0.000000000000000000, 0.000000000000000000, 0.8000000000000000444 ) ) ;
#28 = STYLED_ITEM ( 'NONE', ( #47 ), #55 ) ;
#29 =( NAMED_UNIT ( * ) PLANE_ANGLE_UNIT ( ) SI_UNIT ( $, .RADIAN. ) );
#30 = PRESENTATION_LAYER_ASSIGNMENT (  '', '', ( #28 ) ) ;
#31 = ORIENTED_EDGE ( 'NONE', *, *, #84, .T. ) ;
#32 = ORIENTED_EDGE ( 'NONE', *, *, #84, .F. ) ;
#33 = CARTESIAN_POINT ( 'NONE',  ( 0.000000000000000000, 0.000000000000000000, -0.8000000000000000444 ) ) ;
#34 = CARTESIAN_POINT ( 'NONE',  ( 0.000000000000000000, 0.000000000000000000, -0.8000000000000000444 ) ) ;
#35 = CARTESIAN_POINT ( 'NONE',  ( 0.000000000000000000, 0.000000000000000000, -0.8000000000000000444 ) ) ;
#36 = PRESENTATION_LAYER_ASSIGNMENT (  '', '', ( #62 ) ) ;
#37 = CARTESIAN_POINT ( 'NONE',  ( 3.200000000000000178, 0.000000000000000000, 0.8000000000000000444 ) ) ;
#38 = VERTEX_POINT ( 'NONE', #81 ) ;
#39 = SURFACE_SIDE_STYLE ('',( #93 ) ) ;
#40 = EDGE_CURVE ( 'NONE', #97, #97, #91, .T. ) ;
#41 = AXIS2_PLACEMENT_3D ( 'NONE', #43, #87, #7 ) ;
#42 = CIRCLE ( 'NONE', #71, 3.200000000000000178 ) ;
#43 = CARTESIAN_POINT ( 'NONE',  ( 0.000000000000000000, 0.000000000000000000, 0.8000000000000000444 ) ) ;
#44 = ORIENTED_EDGE ( 'NONE', *, *, #16, .T. ) ;
#45 = CARTESIAN_POINT ( 'NONE',  ( 0.000000000000000000, 0.000000000000000000, 0.8000000000000000444 ) ) ;
#46 =( GEOMETRIC_REPRESENTATION_CONTEXT ( 3 ) GLOBAL_UNCERTAINTY_ASSIGNED_CONTEXT ( ( #122 ) ) GLOBAL_UNIT_ASSIGNED_CONTEXT ( ( #79, #82, #57 ) ) REPRESENTATION_CONTEXT ( 'NONE', 'WORKASPACE' ) );
#47 = PRESENTATION_STYLE_ASSIGNMENT (( #67 ) ) ;
#48 = FACE_OUTER_BOUND ( 'NONE', #85, .T. ) ;
#49 = FILL_AREA_STYLE_COLOUR ( '', #131 ) ;
#50 = MECHANICAL_DESIGN_GEOMETRIC_PRESENTATION_REPRESENTATION (  '', ( #62 ), #94 ) ;
#51 = FACE_BOUND ( 'NONE', #77, .T. ) ;
#52 = PRODUCT_CONTEXT ( 'NONE', #23, 'mechanical' ) ;
#53 = AXIS2_PLACEMENT_3D ( 'NONE', #17, #83, #3 ) ;
#54 = DIRECTION ( 'NONE',  ( 0.000000000000000000, 0.000000000000000000, 1.000000000000000000 ) ) ;
#55 = MANIFOLD_SOLID_BREP ( 'Boss-Extrude1', #25 ) ;
#56 = DIRECTION ( 'NONE',  ( 0.000000000000000000, 0.000000000000000000, 1.000000000000000000 ) ) ;
#57 =( NAMED_UNIT ( * ) SI_UNIT ( $, .STERADIAN. ) SOLID_ANGLE_UNIT ( ) );
#58 = DIRECTION ( 'NONE',  ( 1.000000000000000000, 0.000000000000000000, 0.000000000000000000 ) ) ;
#59 = PRODUCT_DEFINITION_FORMATION_WITH_SPECIFIED_SOURCE ( 'ANY', '', #102, .NOT_KNOWN. ) ;
#60 = FILL_AREA_STYLE ('',( #92 ) ) ;
#61 =( LENGTH_UNIT ( ) NAMED_UNIT ( * ) SI_UNIT ( .MILLI., .METRE. ) );
#62 = STYLED_ITEM ( 'NONE', ( #118 ), #2 ) ;
#63 = ORIENTED_EDGE ( 'NONE', *, *, #16, .F. ) ;
#64 = PRODUCT_DEFINITION_CONTEXT ( 'detailed design', #80, 'design' ) ;
#65 = CYLINDRICAL_SURFACE ( 'NONE', #98, 3.200000000000000178 ) ;
#66 = DIRECTION ( 'NONE',  ( -1.000000000000000000, 0.000000000000000000, 0.000000000000000000 ) ) ;
#67 = SURFACE_STYLE_USAGE ( .BOTH. , #105 ) ;
#68 = SURFACE_STYLE_FILL_AREA ( #121 ) ;
#69 = PLANE ( 'NONE',  #115 ) ;
#70 = ADVANCED_FACE ( 'NONE', ( #12, #124 ), #134, .T. ) ;
#71 = AXIS2_PLACEMENT_3D ( 'NONE', #33, #13, #88 ) ;
#72 = PRODUCT_DEFINITION_SHAPE ( 'NONE', 'NONE',  #108 ) ;
#73 = EDGE_CURVE ( 'NONE', #104, #104, #18, .T. ) ;
#74 = EDGE_LOOP ( 'NONE', ( #32 ) ) ;
#75 =( GEOMETRIC_REPRESENTATION_CONTEXT ( 3 ) GLOBAL_UNCERTAINTY_ASSIGNED_CONTEXT ( ( #100 ) ) GLOBAL_UNIT_ASSIGNED_CONTEXT ( ( #10, #11, #114 ) ) REPRESENTATION_CONTEXT ( 'NONE', 'WORKASPACE' ) );
#76 = EDGE_LOOP ( 'NONE', ( #63 ) ) ;
#77 = EDGE_LOOP ( 'NONE', ( #31 ) ) ;
#78 = ORIENTED_EDGE ( 'NONE', *, *, #40, .T. ) ;
#79 =( LENGTH_UNIT ( ) NAMED_UNIT ( * ) SI_UNIT ( .MILLI., .METRE. ) );
#80 = APPLICATION_CONTEXT ( 'automotive_design' ) ;
#81 = CARTESIAN_POINT ( 'NONE',  ( 3.200000000000000178, 0.000000000000000000, -0.8000000000000000444 ) ) ;
#82 =( NAMED_UNIT ( * ) PLANE_ANGLE_UNIT ( ) SI_UNIT ( $, .RADIAN. ) );
#83 = DIRECTION ( 'NONE',  ( 0.000000000000000000, 0.000000000000000000, 1.000000000000000000 ) ) ;
#84 = EDGE_CURVE ( 'NONE', #38, #38, #42, .T. ) ;
#85 = EDGE_LOOP ( 'NONE', ( #78 ) ) ;
#86 = PRODUCT_RELATED_PRODUCT_CATEGORY ( 'part', '', ( #102 ) ) ;
#87 = DIRECTION ( 'NONE',  ( 0.000000000000000000, 0.000000000000000000, 1.000000000000000000 ) ) ;
#88 = DIRECTION ( 'NONE',  ( 1.000000000000000000, 0.000000000000000000, 0.000000000000000000 ) ) ;
#89 = DIRECTION ( 'NONE',  ( 1.000000000000000000, 0.000000000000000000, -0.000000000000000000 ) ) ;
#90 = AXIS2_PLACEMENT_3D ( 'NONE', #132, #56, #58 ) ;
#91 = CIRCLE ( 'NONE', #90, 5.500000000000000000 ) ;
#92 = FILL_AREA_STYLE_COLOUR ( '', #4 ) ;
#93 = SURFACE_STYLE_FILL_AREA ( #60 ) ;
#94 =( GEOMETRIC_REPRESENTATION_CONTEXT ( 3 ) GLOBAL_UNCERTAINTY_ASSIGNED_CONTEXT ( ( #22 ) ) GLOBAL_UNIT_ASSIGNED_CONTEXT ( ( #61, #29, #126 ) ) REPRESENTATION_CONTEXT ( 'NONE', 'WORKASPACE' ) );
#95 = ADVANCED_FACE ( 'NONE', ( #48, #125 ), #69, .T. ) ;
#96 = VERTEX_POINT ( 'NONE', #37 ) ;
#97 = VERTEX_POINT ( 'NONE', #116 ) ;
#98 = AXIS2_PLACEMENT_3D ( 'NONE', #21, #6, #9 ) ;
#99 = MECHANICAL_DESIGN_GEOMETRIC_PRESENTATION_REPRESENTATION (  '', ( #28 ), #46 ) ;
#100 = UNCERTAINTY_MEASURE_WITH_UNIT (LENGTH_MEASURE( 1.000000000000000082E-05 ), #10, 'distance_accuracy_value', 'NONE');
#101 = ORIENTED_EDGE ( 'NONE', *, *, #73, .T. ) ;
#102 = PRODUCT ( '76.05.04.0003', '76.05.04.0003', '', ( #52 ) ) ;
#103 = FACE_OUTER_BOUND ( 'NONE', #120, .T. ) ;
#104 = VERTEX_POINT ( 'NONE', #14 ) ;
#105 = SURFACE_SIDE_STYLE ('',( #68 ) ) ;
#106 = DIRECTION ( 'NONE',  ( 0.000000000000000000, 0.000000000000000000, 1.000000000000000000 ) ) ;
#107 = APPLICATION_PROTOCOL_DEFINITION ( 'draft international standard', 'automotive_design', 1998, #23 ) ;
#108 = PRODUCT_DEFINITION ( 'UNKNOWN', '', #59, #64 ) ;
#109 = FACE_OUTER_BOUND ( 'NONE', #128, .T. ) ;
#110 = EDGE_LOOP ( 'NONE', ( #101 ) ) ;
#111 = ORIENTED_EDGE ( 'NONE', *, *, #73, .F. ) ;
#112 = EDGE_LOOP ( 'NONE', ( #5 ) ) ;
#113 = DIRECTION ( 'NONE',  ( 0.000000000000000000, 0.000000000000000000, 1.000000000000000000 ) ) ;
#114 =( NAMED_UNIT ( * ) SI_UNIT ( $, .STERADIAN. ) SOLID_ANGLE_UNIT ( ) );
#115 = AXIS2_PLACEMENT_3D ( 'NONE', #45, #113, #133 ) ;
#116 = CARTESIAN_POINT ( 'NONE',  ( 5.500000000000000000, 0.000000000000000000, 0.8000000000000000444 ) ) ;
#117 = AXIS2_PLACEMENT_3D ( 'NONE', #27, #123, #66 ) ;
#118 = PRESENTATION_STYLE_ASSIGNMENT (( #20 ) ) ;
#119 = SHAPE_DEFINITION_REPRESENTATION ( #72, #2 ) ;
#120 = EDGE_LOOP ( 'NONE', ( #111 ) ) ;
#121 = FILL_AREA_STYLE ('',( #49 ) ) ;
#122 = UNCERTAINTY_MEASURE_WITH_UNIT (LENGTH_MEASURE( 1.000000000000000082E-05 ), #79, 'distance_accuracy_value', 'NONE');
#123 = DIRECTION ( 'NONE',  ( -0.000000000000000000, -0.000000000000000000, -1.000000000000000000 ) ) ;
#124 = FACE_OUTER_BOUND ( 'NONE', #110, .T. ) ;
#125 = FACE_BOUND ( 'NONE', #76, .T. ) ;
#126 =( NAMED_UNIT ( * ) SI_UNIT ( $, .STERADIAN. ) SOLID_ANGLE_UNIT ( ) );
#127 = AXIS2_PLACEMENT_3D ( 'NONE', #34, #106, #89 ) ;
#128 = EDGE_LOOP ( 'NONE', ( #44 ) ) ;
#129 = ADVANCED_FACE ( 'NONE', ( #103, #51 ), #24, .F. ) ;
#130 = FACE_OUTER_BOUND ( 'NONE', #74, .T. ) ;
#131 = COLOUR_RGB ( '',0.8274509803921568096, 0.8392156862745098200, 0.8274509803921568096 ) ;
#132 = CARTESIAN_POINT ( 'NONE',  ( 0.000000000000000000, 0.000000000000000000, 0.8000000000000000444 ) ) ;
#133 = DIRECTION ( 'NONE',  ( 1.000000000000000000, 0.000000000000000000, -0.000000000000000000 ) ) ;
#134 = CYLINDRICAL_SURFACE ( 'NONE', #117, 5.500000000000000000 ) ;
ENDSEC;
END-ISO-10303-21;
