ISO-10303-21;
HEADER;
FILE_DESCRIPTION (( 'STEP AP214' ),
    '1' );
FILE_NAME ('76.04.07.0003.step',
    '2021-04-02T18:04:43',
    ( '' ),
    ( '' ),
    'SwSTEP 2.0',
    'SolidWorks 2021',
    '' );
FILE_SCHEMA (( 'AUTOMOTIVE_DESIGN' ));
ENDSEC;

DATA;
#1 = CARTESIAN_POINT ( 'NONE',  ( 13.99999999999999822, 0.000000000000000000, 0.000000000000000000 ) ) ;
#2 = DIRECTION ( 'NONE',  ( 0.000000000000000000, 0.000000000000000000, -1.000000000000000000 ) ) ;
#3 = DIRECTION ( 'NONE',  ( 0.000000000000000000, 0.000000000000000000, -1.000000000000000000 ) ) ;
#4 = CIRCLE ( 'NONE', #54, 5.422649730810368496 ) ;
#5 = DIRECTION ( 'NONE',  ( -1.000000000000000000, -0.000000000000000000, -0.000000000000000000 ) ) ;
#6 = AXIS2_PLACEMENT_3D ( 'NONE', #264, #24, #139 ) ;
#7 = DIRECTION ( 'NONE',  ( -1.000000000000000000, -0.000000000000000000, -0.000000000000000000 ) ) ;
#8 = AXIS2_PLACEMENT_3D ( 'NONE', #100, #188, #2 ) ;
#9 =( NAMED_UNIT ( * ) PLANE_ANGLE_UNIT ( ) SI_UNIT ( $, .RADIAN. ) );
#10 = FACE_BOUND ( 'NONE', #12, .T. ) ;
#11 = CIRCLE ( 'NONE', #259, 5.750000000000000000 ) ;
#12 = EDGE_LOOP ( 'NONE', ( #201 ) ) ;
#13 = ADVANCED_FACE ( 'NONE', ( #239 ), #164, .F. ) ;
#14 = EDGE_LOOP ( 'NONE', ( #294 ) ) ;
#15 = ORIENTED_EDGE ( 'NONE', *, *, #69, .F. ) ;
#16 = DIRECTION ( 'NONE',  ( 0.000000000000000000, 0.000000000000000000, 1.000000000000000000 ) ) ;
#17 = EDGE_LOOP ( 'NONE', ( #204 ) ) ;
#18 =( LENGTH_UNIT ( ) NAMED_UNIT ( * ) SI_UNIT ( .MILLI., .METRE. ) );
#19 = AXIS2_PLACEMENT_3D ( 'NONE', #281, #216, #267 ) ;
#20 = ORIENTED_EDGE ( 'NONE', *, *, #165, .T. ) ;
#21 = ORIENTED_EDGE ( 'NONE', *, *, #268, .F. ) ;
#22 = CARTESIAN_POINT ( 'NONE',  ( 13.35000000000000142, 0.000000000000000000, 6.000000000000000000 ) ) ;
#23 = FACE_BOUND ( 'NONE', #132, .T. ) ;
#24 = DIRECTION ( 'NONE',  ( -1.000000000000000000, -0.000000000000000000, -0.000000000000000000 ) ) ;
#25 = CIRCLE ( 'NONE', #273, 6.000000000000001776 ) ;
#26 = SURFACE_STYLE_USAGE ( .BOTH. , #138 ) ;
#27 = DIRECTION ( 'NONE',  ( 0.000000000000000000, 0.000000000000000000, 1.000000000000000000 ) ) ;
#28 = DIRECTION ( 'NONE',  ( 1.000000000000000000, 0.000000000000000000, 0.000000000000000000 ) ) ;
#29 = DIRECTION ( 'NONE',  ( 0.000000000000000000, 0.000000000000000000, 1.000000000000000000 ) ) ;
#30 = AXIS2_PLACEMENT_3D ( 'NONE', #106, #89, #194 ) ;
#31 = FACE_OUTER_BOUND ( 'NONE', #41, .T. ) ;
#32 = PRODUCT_DEFINITION_SHAPE ( 'NONE', 'NONE',  #297 ) ;
#33 = PLANE ( 'NONE',  #30 ) ;
#34 = SHAPE_DEFINITION_REPRESENTATION ( #32, #77 ) ;
#35 = PRODUCT_DEFINITION_FORMATION_WITH_SPECIFIED_SOURCE ( 'ANY', '', #81, .NOT_KNOWN. ) ;
#36 = FACE_BOUND ( 'NONE', #40, .T. ) ;
#37 = SURFACE_STYLE_FILL_AREA ( #110 ) ;
#38 = ADVANCED_FACE ( 'NONE', ( #31, #74 ), #187, .T. ) ;
#39 = ORIENTED_EDGE ( 'NONE', *, *, #215, .F. ) ;
#40 = EDGE_LOOP ( 'NONE', ( #68 ) ) ;
#41 = EDGE_LOOP ( 'NONE', ( #43 ) ) ;
#42 = VERTEX_POINT ( 'NONE', #183 ) ;
#43 = ORIENTED_EDGE ( 'NONE', *, *, #175, .F. ) ;
#44 = VERTEX_POINT ( 'NONE', #237 ) ;
#45 = CIRCLE ( 'NONE', #291, 5.422649730810368496 ) ;
#46 = VERTEX_POINT ( 'NONE', #96 ) ;
#47 = ADVANCED_FACE ( 'NONE', ( #284, #185 ), #212, .T. ) ;
#48 = FACE_OUTER_BOUND ( 'NONE', #60, .T. ) ;
#49 = FILL_AREA_STYLE ('',( #262 ) ) ;
#50 = DIRECTION ( 'NONE',  ( 0.000000000000000000, 0.000000000000000000, 1.000000000000000000 ) ) ;
#51 = EDGE_CURVE ( 'NONE', #280, #280, #103, .T. ) ;
#52 = FACE_OUTER_BOUND ( 'NONE', #152, .T. ) ;
#53 = FACE_OUTER_BOUND ( 'NONE', #295, .T. ) ;
#54 = AXIS2_PLACEMENT_3D ( 'NONE', #59, #87, #131 ) ;
#55 = ADVANCED_FACE ( 'NONE', ( #23, #48 ), #124, .F. ) ;
#56 = CARTESIAN_POINT ( 'NONE',  ( -12.25000000000000000, 5.999999999999998224, 0.000000000000000000 ) ) ;
#57 =( NAMED_UNIT ( * ) SI_UNIT ( $, .STERADIAN. ) SOLID_ANGLE_UNIT ( ) );
#58 = PLANE ( 'NONE',  #219 ) ;
#59 = CARTESIAN_POINT ( 'NONE',  ( 15.00000000000000000, 0.000000000000000000, 0.000000000000000000 ) ) ;
#60 = EDGE_LOOP ( 'NONE', ( #278 ) ) ;
#61 = AXIS2_PLACEMENT_3D ( 'NONE', #229, #246, #248 ) ;
#62 = EDGE_LOOP ( 'NONE', ( #190 ) ) ;
#63 = PLANE ( 'NONE',  #119 ) ;
#64 = AXIS2_PLACEMENT_3D ( 'NONE', #238, #101, #214 ) ;
#65 = EDGE_LOOP ( 'NONE', ( #202 ) ) ;
#66 = EDGE_LOOP ( 'NONE', ( #255 ) ) ;
#67 = VERTEX_POINT ( 'NONE', #234 ) ;
#68 = ORIENTED_EDGE ( 'NONE', *, *, #90, .T. ) ;
#69 = EDGE_CURVE ( 'NONE', #120, #120, #285, .T. ) ;
#70 = CIRCLE ( 'NONE', #61, 5.749999999999996447 ) ;
#71 = CARTESIAN_POINT ( 'NONE',  ( -12.25000000000000000, 0.000000000000000000, 5.749999999999996447 ) ) ;
#72 = AXIS2_PLACEMENT_3D ( 'NONE', #221, #136, #27 ) ;
#73 = VERTEX_POINT ( 'NONE', #156 ) ;
#74 = FACE_OUTER_BOUND ( 'NONE', #65, .T. ) ;
#75 = CARTESIAN_POINT ( 'NONE',  ( -15.00000000000000000, 5.422649730810368496, 0.000000000000000000 ) ) ;
#76 = FACE_OUTER_BOUND ( 'NONE', #66, .T. ) ;
#77 = ADVANCED_BREP_SHAPE_REPRESENTATION ( '76.04.07.0003', ( #179, #178 ), #227 ) ;
#78 = CARTESIAN_POINT ( 'NONE',  ( -13.35000000000000142, 0.000000000000000000, 0.000000000000000000 ) ) ;
#79 = CARTESIAN_POINT ( 'NONE',  ( 0.000000000000000000, 0.000000000000000000, 0.000000000000000000 ) ) ;
#80 = CARTESIAN_POINT ( 'NONE',  ( -12.25000000000000000, 0.000000000000000000, 0.000000000000000000 ) ) ;
#81 = PRODUCT ( '76.04.07.0003', '76.04.07.0003', '', ( #162 ) ) ;
#82 = PRODUCT_RELATED_PRODUCT_CATEGORY ( 'part', '', ( #81 ) ) ;
#83 = PRESENTATION_STYLE_ASSIGNMENT (( #144 ) ) ;
#84 = DIRECTION ( 'NONE',  ( -0.000000000000000000, 0.000000000000000000, 1.000000000000000000 ) ) ;
#85 = CARTESIAN_POINT ( 'NONE',  ( -15.00000000000000000, 0.000000000000000000, 0.000000000000000000 ) ) ;
#86 = EDGE_LOOP ( 'NONE', ( #15 ) ) ;
#87 = DIRECTION ( 'NONE',  ( -1.000000000000000000, -0.000000000000000000, -0.000000000000000000 ) ) ;
#88 = ORIENTED_EDGE ( 'NONE', *, *, #175, .T. ) ;
#89 = DIRECTION ( 'NONE',  ( -1.000000000000000000, 0.000000000000000000, -0.000000000000000000 ) ) ;
#90 = EDGE_CURVE ( 'NONE', #134, #134, #145, .T. ) ;
#91 = ORIENTED_EDGE ( 'NONE', *, *, #90, .F. ) ;
#92 = SURFACE_STYLE_FILL_AREA ( #49 ) ;
#93 = ORIENTED_EDGE ( 'NONE', *, *, #215, .T. ) ;
#94 = APPLICATION_PROTOCOL_DEFINITION ( 'draft international standard', 'automotive_design', 1998, #235 ) ;
#95 = ADVANCED_FACE ( 'NONE', ( #166, #53 ), #150, .T. ) ;
#96 = CARTESIAN_POINT ( 'NONE',  ( -12.25000000000000000, 0.000000000000000000, 5.999999999999998224 ) ) ;
#97 = DIRECTION ( 'NONE',  ( -1.000000000000000000, -0.000000000000000000, -0.000000000000000000 ) ) ;
#98 = CIRCLE ( 'NONE', #225, 5.999999999999998224 ) ;
#99 = CARTESIAN_POINT ( 'NONE',  ( -15.00000000000000000, 0.000000000000000000, 0.000000000000000000 ) ) ;
#100 = CARTESIAN_POINT ( 'NONE',  ( 13.35000000000000142, 6.000000000000000000, 0.000000000000000000 ) ) ;
#101 = DIRECTION ( 'NONE',  ( -1.000000000000000000, -0.000000000000000000, -0.000000000000000000 ) ) ;
#102 = CIRCLE ( 'NONE', #157, 5.749999999999999112 ) ;
#103 = CIRCLE ( 'NONE', #251, 6.000000000000000000 ) ;
#104 = DIRECTION ( 'NONE',  ( -1.000000000000000000, -0.000000000000000000, -0.000000000000000000 ) ) ;
#105 = DIRECTION ( 'NONE',  ( -1.000000000000000000, -0.000000000000000000, -0.000000000000000000 ) ) ;
#106 = CARTESIAN_POINT ( 'NONE',  ( 15.00000000000000000, 0.000000000000000000, 0.000000000000000000 ) ) ;
#107 = AXIS2_PLACEMENT_3D ( 'NONE', #109, #223, #296 ) ;
#108 = CYLINDRICAL_SURFACE ( 'NONE', #206, 5.750000000000000000 ) ;
#109 = CARTESIAN_POINT ( 'NONE',  ( -15.00000000000000000, 0.000000000000000000, 0.000000000000000000 ) ) ;
#110 = FILL_AREA_STYLE ('',( #226 ) ) ;
#111 = AXIS2_PLACEMENT_3D ( 'NONE', #287, #5, #218 ) ;
#112 = EDGE_LOOP ( 'NONE', ( #176 ) ) ;
#113 = ADVANCED_FACE ( 'NONE', ( #283, #76 ), #163, .T. ) ;
#114 =( LENGTH_UNIT ( ) NAMED_UNIT ( * ) SI_UNIT ( .MILLI., .METRE. ) );
#115 = STYLED_ITEM ( 'NONE', ( #116 ), #77 ) ;
#116 = PRESENTATION_STYLE_ASSIGNMENT (( #26 ) ) ;
#117 = EDGE_LOOP ( 'NONE', ( #93 ) ) ;
#118 = DIRECTION ( 'NONE',  ( -1.000000000000000000, -0.000000000000000000, -0.000000000000000000 ) ) ;
#119 = AXIS2_PLACEMENT_3D ( 'NONE', #290, #292, #84 ) ;
#120 = VERTEX_POINT ( 'NONE', #186 ) ;
#121 = AXIS2_PLACEMENT_3D ( 'NONE', #78, #97, #261 ) ;
#122 = DIRECTION ( 'NONE',  ( 0.000000000000000000, 0.000000000000000000, 1.000000000000000000 ) ) ;
#123 = UNCERTAINTY_MEASURE_WITH_UNIT (LENGTH_MEASURE( 1.000000000000000082E-05 ), #114, 'distance_accuracy_value', 'NONE');
#124 = PLANE ( 'NONE',  #245 ) ;
#125 = EDGE_LOOP ( 'NONE', ( #203 ) ) ;
#126 = EDGE_CURVE ( 'NONE', #46, #46, #240, .T. ) ;
#127 = FACE_OUTER_BOUND ( 'NONE', #17, .T. ) ;
#128 = DIRECTION ( 'NONE',  ( -1.000000000000000000, -0.000000000000000000, -0.000000000000000000 ) ) ;
#129 = FACE_OUTER_BOUND ( 'NONE', #232, .T. ) ;
#130 = EDGE_LOOP ( 'NONE', ( #230 ) ) ;
#131 = DIRECTION ( 'NONE',  ( 0.000000000000000000, 0.000000000000000000, 1.000000000000000000 ) ) ;
#132 = EDGE_LOOP ( 'NONE', ( #39 ) ) ;
#133 = FACE_OUTER_BOUND ( 'NONE', #14, .T. ) ;
#134 = VERTEX_POINT ( 'NONE', #209 ) ;
#135 =( NAMED_UNIT ( * ) PLANE_ANGLE_UNIT ( ) SI_UNIT ( $, .RADIAN. ) );
#136 = DIRECTION ( 'NONE',  ( -1.000000000000000000, -0.000000000000000000, -0.000000000000000000 ) ) ;
#137 = MECHANICAL_DESIGN_GEOMETRIC_PRESENTATION_REPRESENTATION (  '', ( #115 ), #199 ) ;
#138 = SURFACE_SIDE_STYLE ('',( #92 ) ) ;
#139 = DIRECTION ( 'NONE',  ( 0.000000000000000000, 0.000000000000000000, 1.000000000000000000 ) ) ;
#140 = CARTESIAN_POINT ( 'NONE',  ( -15.00000000000000000, 0.000000000000000000, 0.000000000000000000 ) ) ;
#141 = DIRECTION ( 'NONE',  ( 0.000000000000000000, 0.000000000000000000, 1.000000000000000000 ) ) ;
#142 = DIRECTION ( 'NONE',  ( -0.000000000000000000, 0.000000000000000000, 1.000000000000000000 ) ) ;
#143 = DIRECTION ( 'NONE',  ( 0.000000000000000000, 0.000000000000000000, 1.000000000000000000 ) ) ;
#144 = SURFACE_STYLE_USAGE ( .BOTH. , #177 ) ;
#145 = CIRCLE ( 'NONE', #121, 5.749999999999996447 ) ;
#146 = ADVANCED_FACE ( 'NONE', ( #52, #242 ), #174, .T. ) ;
#147 = PRODUCT_DEFINITION_CONTEXT ( 'detailed design', #252, 'design' ) ;
#148 = EDGE_CURVE ( 'NONE', #42, #42, #45, .T. ) ;
#149 = ORIENTED_EDGE ( 'NONE', *, *, #172, .F. ) ;
#150 = CONICAL_SURFACE ( 'NONE', #19, 5.999999999999998224, 0.5235987755983014802 ) ;
#151 = DIRECTION ( 'NONE',  ( -1.000000000000000000, 0.000000000000000000, -0.000000000000000000 ) ) ;
#152 = EDGE_LOOP ( 'NONE', ( #149 ) ) ;
#153 = CARTESIAN_POINT ( 'NONE',  ( 15.00000000000000000, 0.000000000000000000, 5.422649730810368496 ) ) ;
#154 = STYLED_ITEM ( 'NONE', ( #83 ), #179 ) ;
#155 = EDGE_LOOP ( 'NONE', ( #91 ) ) ;
#156 = CARTESIAN_POINT ( 'NONE',  ( 12.25000000000000000, 0.000000000000000000, 5.749999999999999112 ) ) ;
#157 = AXIS2_PLACEMENT_3D ( 'NONE', #170, #270, #160 ) ;
#158 = MECHANICAL_DESIGN_GEOMETRIC_PRESENTATION_REPRESENTATION (  '', ( #154 ), #195 ) ;
#159 = PLANE ( 'NONE',  #8 ) ;
#160 = DIRECTION ( 'NONE',  ( 0.000000000000000000, 0.000000000000000000, 1.000000000000000000 ) ) ;
#161 = ORIENTED_EDGE ( 'NONE', *, *, #148, .T. ) ;
#162 = PRODUCT_CONTEXT ( 'NONE', #235, 'mechanical' ) ;
#163 = CYLINDRICAL_SURFACE ( 'NONE', #6, 6.000000000000000888 ) ;
#164 = PLANE ( 'NONE',  #200 ) ;
#165 = EDGE_CURVE ( 'NONE', #299, #299, #11, .T. ) ;
#166 = FACE_BOUND ( 'NONE', #276, .T. ) ;
#167 = CARTESIAN_POINT ( 'NONE',  ( 13.35000000000000142, 0.000000000000000000, 0.000000000000000000 ) ) ;
#168 = AXIS2_PLACEMENT_3D ( 'NONE', #99, #118, #286 ) ;
#169 = FACE_OUTER_BOUND ( 'NONE', #228, .T. ) ;
#170 = CARTESIAN_POINT ( 'NONE',  ( 12.25000000000000000, 0.000000000000000000, 0.000000000000000000 ) ) ;
#171 = DIRECTION ( 'NONE',  ( 0.000000000000000000, 0.000000000000000000, 1.000000000000000000 ) ) ;
#172 = EDGE_CURVE ( 'NONE', #67, #67, #25, .T. ) ;
#173 = CIRCLE ( 'NONE', #289, 5.999999999999996447 ) ;
#174 = CONICAL_SURFACE ( 'NONE', #64, 5.422649730810368496, 0.5235987755983040337 ) ;
#175 = EDGE_CURVE ( 'NONE', #44, #44, #98, .T. ) ;
#176 = ORIENTED_EDGE ( 'NONE', *, *, #69, .T. ) ;
#177 = SURFACE_SIDE_STYLE ('',( #37 ) ) ;
#178 = AXIS2_PLACEMENT_3D ( 'NONE', #79, #288, #28 ) ;
#179 = MANIFOLD_SOLID_BREP ( 'Revolve1', #220 ) ;
#180 = ORIENTED_EDGE ( 'NONE', *, *, #51, .F. ) ;
#181 = VERTEX_POINT ( 'NONE', #153 ) ;
#182 = ORIENTED_EDGE ( 'NONE', *, *, #148, .F. ) ;
#183 = CARTESIAN_POINT ( 'NONE',  ( -15.00000000000000000, 0.000000000000000000, 5.422649730810368496 ) ) ;
#184 =( NAMED_UNIT ( * ) SI_UNIT ( $, .STERADIAN. ) SOLID_ANGLE_UNIT ( ) );
#185 = FACE_OUTER_BOUND ( 'NONE', #117, .T. ) ;
#186 = CARTESIAN_POINT ( 'NONE',  ( 12.25000000000000000, 0.000000000000000000, 6.000000000000000888 ) ) ;
#187 = CYLINDRICAL_SURFACE ( 'NONE', #168, 5.999999999999997335 ) ;
#188 = DIRECTION ( 'NONE',  ( 1.000000000000000000, 0.000000000000000000, 0.000000000000000000 ) ) ;
#189 = UNCERTAINTY_MEASURE_WITH_UNIT (LENGTH_MEASURE( 1.000000000000000082E-05 ), #18, 'distance_accuracy_value', 'NONE');
#190 = ORIENTED_EDGE ( 'NONE', *, *, #213, .T. ) ;
#191 = ADVANCED_FACE ( 'NONE', ( #127, #36 ), #58, .F. ) ;
#192 = DIRECTION ( 'NONE',  ( 1.000000000000000000, 0.000000000000000000, 0.000000000000000000 ) ) ;
#193 = DIRECTION ( 'NONE',  ( 0.000000000000000000, 0.000000000000000000, -1.000000000000000000 ) ) ;
#194 = DIRECTION ( 'NONE',  ( -0.000000000000000000, 0.000000000000000000, 1.000000000000000000 ) ) ;
#195 =( GEOMETRIC_REPRESENTATION_CONTEXT ( 3 ) GLOBAL_UNCERTAINTY_ASSIGNED_CONTEXT ( ( #123 ) ) GLOBAL_UNIT_ASSIGNED_CONTEXT ( ( #114, #9, #57 ) ) REPRESENTATION_CONTEXT ( 'NONE', 'WORKASPACE' ) );
#196 = FACE_OUTER_BOUND ( 'NONE', #86, .T. ) ;
#197 = FACE_OUTER_BOUND ( 'NONE', #274, .T. ) ;
#198 = DIRECTION ( 'NONE',  ( -1.000000000000000000, -0.000000000000000000, -0.000000000000000000 ) ) ;
#199 =( GEOMETRIC_REPRESENTATION_CONTEXT ( 3 ) GLOBAL_UNCERTAINTY_ASSIGNED_CONTEXT ( ( #217 ) ) GLOBAL_UNIT_ASSIGNED_CONTEXT ( ( #258, #135, #184 ) ) REPRESENTATION_CONTEXT ( 'NONE', 'WORKASPACE' ) );
#200 = AXIS2_PLACEMENT_3D ( 'NONE', #75, #192, #3 ) ;
#201 = ORIENTED_EDGE ( 'NONE', *, *, #268, .T. ) ;
#202 = ORIENTED_EDGE ( 'NONE', *, *, #210, .T. ) ;
#203 = ORIENTED_EDGE ( 'NONE', *, *, #126, .F. ) ;
#204 = ORIENTED_EDGE ( 'NONE', *, *, #210, .F. ) ;
#205 = FACE_OUTER_BOUND ( 'NONE', #112, .T. ) ;
#206 = AXIS2_PLACEMENT_3D ( 'NONE', #85, #198, #171 ) ;
#207 = CARTESIAN_POINT ( 'NONE',  ( 13.35000000000000142, 0.000000000000000000, 5.750000000000000000 ) ) ;
#208 = ADVANCED_FACE ( 'NONE', ( #169, #197 ), #108, .T. ) ;
#209 = CARTESIAN_POINT ( 'NONE',  ( -13.35000000000000142, 0.000000000000000000, 5.749999999999996447 ) ) ;
#210 = EDGE_CURVE ( 'NONE', #231, #231, #173, .T. ) ;
#211 = PRESENTATION_LAYER_ASSIGNMENT (  '', '', ( #115 ) ) ;
#212 = CYLINDRICAL_SURFACE ( 'NONE', #72, 5.749999999999996447 ) ;
#213 = EDGE_CURVE ( 'NONE', #181, #181, #4, .T. ) ;
#214 = DIRECTION ( 'NONE',  ( 0.000000000000000000, 0.000000000000000000, 1.000000000000000000 ) ) ;
#215 = EDGE_CURVE ( 'NONE', #256, #256, #70, .T. ) ;
#216 = DIRECTION ( 'NONE',  ( 1.000000000000000000, 0.000000000000000000, 0.000000000000000000 ) ) ;
#217 = UNCERTAINTY_MEASURE_WITH_UNIT (LENGTH_MEASURE( 1.000000000000000082E-05 ), #258, 'distance_accuracy_value', 'NONE');
#218 = DIRECTION ( 'NONE',  ( 0.000000000000000000, 0.000000000000000000, 1.000000000000000000 ) ) ;
#219 = AXIS2_PLACEMENT_3D ( 'NONE', #224, #151, #142 ) ;
#220 = CLOSED_SHELL ( 'NONE', ( #236, #146, #113, #272, #208, #265, #247, #55, #47, #191, #38, #95, #13 ) ) ;
#221 = CARTESIAN_POINT ( 'NONE',  ( -15.00000000000000000, 0.000000000000000000, 0.000000000000000000 ) ) ;
#222 = CARTESIAN_POINT ( 'NONE',  ( -13.35000000000000142, 0.000000000000000000, 0.000000000000000000 ) ) ;
#223 = DIRECTION ( 'NONE',  ( -1.000000000000000000, -0.000000000000000000, -0.000000000000000000 ) ) ;
#224 = CARTESIAN_POINT ( 'NONE',  ( -13.35000000000000142, 5.749999999999996447, 0.000000000000000000 ) ) ;
#225 = AXIS2_PLACEMENT_3D ( 'NONE', #254, #128, #16 ) ;
#226 = FILL_AREA_STYLE_COLOUR ( '', #271 ) ;
#227 =( GEOMETRIC_REPRESENTATION_CONTEXT ( 3 ) GLOBAL_UNCERTAINTY_ASSIGNED_CONTEXT ( ( #189 ) ) GLOBAL_UNIT_ASSIGNED_CONTEXT ( ( #18, #282, #260 ) ) REPRESENTATION_CONTEXT ( 'NONE', 'WORKASPACE' ) );
#228 = EDGE_LOOP ( 'NONE', ( #21 ) ) ;
#229 = CARTESIAN_POINT ( 'NONE',  ( -12.25000000000000000, 0.000000000000000000, 0.000000000000000000 ) ) ;
#230 = ORIENTED_EDGE ( 'NONE', *, *, #165, .F. ) ;
#231 = VERTEX_POINT ( 'NONE', #279 ) ;
#232 = EDGE_LOOP ( 'NONE', ( #257 ) ) ;
#233 = AXIS2_PLACEMENT_3D ( 'NONE', #80, #263, #141 ) ;
#234 = CARTESIAN_POINT ( 'NONE',  ( 13.99999999999999822, 0.000000000000000000, 6.000000000000001776 ) ) ;
#235 = APPLICATION_CONTEXT ( 'automotive_design' ) ;
#236 = ADVANCED_FACE ( 'NONE', ( #129 ), #33, .F. ) ;
#237 = CARTESIAN_POINT ( 'NONE',  ( -13.99999999999999822, 0.000000000000000000, 5.999999999999998224 ) ) ;
#238 = CARTESIAN_POINT ( 'NONE',  ( 15.00000000000000000, 0.000000000000000000, 0.000000000000000000 ) ) ;
#239 = FACE_OUTER_BOUND ( 'NONE', #253, .T. ) ;
#240 = CIRCLE ( 'NONE', #233, 5.999999999999998224 ) ;
#241 = APPLICATION_PROTOCOL_DEFINITION ( 'draft international standard', 'automotive_design', 1998, #252 ) ;
#242 = FACE_BOUND ( 'NONE', #62, .T. ) ;
#243 = DIRECTION ( 'NONE',  ( -1.000000000000000000, -0.000000000000000000, -0.000000000000000000 ) ) ;
#244 = EDGE_LOOP ( 'NONE', ( #180 ) ) ;
#245 = AXIS2_PLACEMENT_3D ( 'NONE', #56, #300, #193 ) ;
#246 = DIRECTION ( 'NONE',  ( -1.000000000000000000, -0.000000000000000000, -0.000000000000000000 ) ) ;
#247 = ADVANCED_FACE ( 'NONE', ( #277, #205 ), #275, .T. ) ;
#248 = DIRECTION ( 'NONE',  ( 0.000000000000000000, 0.000000000000000000, 1.000000000000000000 ) ) ;
#249 = COLOUR_RGB ( '',0.7764705882352941346, 0.7568627450980391913, 0.7372549019607843590 ) ;
#250 = PRESENTATION_LAYER_ASSIGNMENT (  '', '', ( #154 ) ) ;
#251 = AXIS2_PLACEMENT_3D ( 'NONE', #266, #105, #50 ) ;
#252 = APPLICATION_CONTEXT ( 'automotive_design' ) ;
#253 = EDGE_LOOP ( 'NONE', ( #161 ) ) ;
#254 = CARTESIAN_POINT ( 'NONE',  ( -13.99999999999999822, 0.000000000000000000, 0.000000000000000000 ) ) ;
#255 = ORIENTED_EDGE ( 'NONE', *, *, #172, .T. ) ;
#256 = VERTEX_POINT ( 'NONE', #71 ) ;
#257 = ORIENTED_EDGE ( 'NONE', *, *, #213, .F. ) ;
#258 =( LENGTH_UNIT ( ) NAMED_UNIT ( * ) SI_UNIT ( .MILLI., .METRE. ) );
#259 = AXIS2_PLACEMENT_3D ( 'NONE', #167, #104, #122 ) ;
#260 =( NAMED_UNIT ( * ) SI_UNIT ( $, .STERADIAN. ) SOLID_ANGLE_UNIT ( ) );
#261 = DIRECTION ( 'NONE',  ( 0.000000000000000000, 0.000000000000000000, 1.000000000000000000 ) ) ;
#262 = FILL_AREA_STYLE_COLOUR ( '', #249 ) ;
#263 = DIRECTION ( 'NONE',  ( -1.000000000000000000, -0.000000000000000000, -0.000000000000000000 ) ) ;
#264 = CARTESIAN_POINT ( 'NONE',  ( -15.00000000000000000, 0.000000000000000000, 0.000000000000000000 ) ) ;
#265 = ADVANCED_FACE ( 'NONE', ( #196, #10 ), #63, .F. ) ;
#266 = CARTESIAN_POINT ( 'NONE',  ( 13.35000000000000142, 0.000000000000000000, 0.000000000000000000 ) ) ;
#267 = DIRECTION ( 'NONE',  ( 0.000000000000000000, 0.000000000000000000, -1.000000000000000000 ) ) ;
#268 = EDGE_CURVE ( 'NONE', #73, #73, #102, .T. ) ;
#269 = DIRECTION ( 'NONE',  ( -1.000000000000000000, -0.000000000000000000, -0.000000000000000000 ) ) ;
#270 = DIRECTION ( 'NONE',  ( -1.000000000000000000, -0.000000000000000000, -0.000000000000000000 ) ) ;
#271 = COLOUR_RGB ( '',0.7764705882352941346, 0.7568627450980391913, 0.7372549019607843590 ) ;
#272 = ADVANCED_FACE ( 'NONE', ( #298, #133 ), #159, .F. ) ;
#273 = AXIS2_PLACEMENT_3D ( 'NONE', #1, #269, #143 ) ;
#274 = EDGE_LOOP ( 'NONE', ( #20 ) ) ;
#275 = CYLINDRICAL_SURFACE ( 'NONE', #107, 6.000000000000000000 ) ;
#276 = EDGE_LOOP ( 'NONE', ( #182 ) ) ;
#277 = FACE_OUTER_BOUND ( 'NONE', #125, .T. ) ;
#278 = ORIENTED_EDGE ( 'NONE', *, *, #126, .T. ) ;
#279 = CARTESIAN_POINT ( 'NONE',  ( -13.35000000000000142, 0.000000000000000000, 5.999999999999996447 ) ) ;
#280 = VERTEX_POINT ( 'NONE', #22 ) ;
#281 = CARTESIAN_POINT ( 'NONE',  ( -13.99999999999999822, 0.000000000000000000, 0.000000000000000000 ) ) ;
#282 =( NAMED_UNIT ( * ) PLANE_ANGLE_UNIT ( ) SI_UNIT ( $, .RADIAN. ) );
#283 = FACE_OUTER_BOUND ( 'NONE', #244, .T. ) ;
#284 = FACE_OUTER_BOUND ( 'NONE', #155, .T. ) ;
#285 = CIRCLE ( 'NONE', #111, 6.000000000000000888 ) ;
#286 = DIRECTION ( 'NONE',  ( 0.000000000000000000, 0.000000000000000000, 1.000000000000000000 ) ) ;
#287 = CARTESIAN_POINT ( 'NONE',  ( 12.25000000000000000, 0.000000000000000000, 0.000000000000000000 ) ) ;
#288 = DIRECTION ( 'NONE',  ( 0.000000000000000000, 0.000000000000000000, 1.000000000000000000 ) ) ;
#289 = AXIS2_PLACEMENT_3D ( 'NONE', #222, #7, #293 ) ;
#290 = CARTESIAN_POINT ( 'NONE',  ( 12.25000000000000000, 5.749999999999999112, 0.000000000000000000 ) ) ;
#291 = AXIS2_PLACEMENT_3D ( 'NONE', #140, #243, #29 ) ;
#292 = DIRECTION ( 'NONE',  ( -1.000000000000000000, 0.000000000000000000, -0.000000000000000000 ) ) ;
#293 = DIRECTION ( 'NONE',  ( 0.000000000000000000, 0.000000000000000000, 1.000000000000000000 ) ) ;
#294 = ORIENTED_EDGE ( 'NONE', *, *, #51, .T. ) ;
#295 = EDGE_LOOP ( 'NONE', ( #88 ) ) ;
#296 = DIRECTION ( 'NONE',  ( 0.000000000000000000, 0.000000000000000000, 1.000000000000000000 ) ) ;
#297 = PRODUCT_DEFINITION ( 'UNKNOWN', '', #35, #147 ) ;
#298 = FACE_BOUND ( 'NONE', #130, .T. ) ;
#299 = VERTEX_POINT ( 'NONE', #207 ) ;
#300 = DIRECTION ( 'NONE',  ( 1.000000000000000000, 0.000000000000000000, 0.000000000000000000 ) ) ;
ENDSEC;
END-ISO-10303-21;
