ISO-10303-21;
HEADER;
FILE_DESCRIPTION (( 'STEP AP214' ),
    '1' );
FILE_NAME ('76.04.07.0002.step',
    '2021-04-02T18:04:40',
    ( '' ),
    ( '' ),
    'SwSTEP 2.0',
    'SolidWorks 2021',
    '' );
FILE_SCHEMA (( 'AUTOMOTIVE_DESIGN' ));
ENDSEC;

DATA;
#1 = VERTEX_POINT ( 'NONE', #189 ) ;
#2 = CARTESIAN_POINT ( 'NONE',  ( -10.24999999999999822, 0.000000000000000000, 4.999999999999997335 ) ) ;
#3 = ADVANCED_FACE ( 'NONE', ( #235, #31 ), #129, .T. ) ;
#4 = CARTESIAN_POINT ( 'NONE',  ( -12.00000000000000000, 0.000000000000000000, 4.999999999999996447 ) ) ;
#5 = EDGE_LOOP ( 'NONE', ( #57 ) ) ;
#6 = EDGE_LOOP ( 'NONE', ( #36 ) ) ;
#7 = ORIENTED_EDGE ( 'NONE', *, *, #294, .T. ) ;
#8 = SURFACE_STYLE_USAGE ( .BOTH. , #17 ) ;
#9 = DIRECTION ( 'NONE',  ( -1.000000000000000000, -0.000000000000000000, -0.000000000000000000 ) ) ;
#10 = ORIENTED_EDGE ( 'NONE', *, *, #29, .T. ) ;
#11 = SURFACE_STYLE_FILL_AREA ( #69 ) ;
#12 = AXIS2_PLACEMENT_3D ( 'NONE', #72, #200, #247 ) ;
#13 = DIRECTION ( 'NONE',  ( -1.000000000000000000, -0.000000000000000000, -0.000000000000000000 ) ) ;
#14 = ADVANCED_FACE ( 'NONE', ( #239, #199 ), #98, .T. ) ;
#15 = FACE_OUTER_BOUND ( 'NONE', #218, .T. ) ;
#16 = CARTESIAN_POINT ( 'NONE',  ( 10.24999999999999822, 0.000000000000000000, 0.000000000000000000 ) ) ;
#17 = SURFACE_SIDE_STYLE ('',( #171 ) ) ;
#18 = CARTESIAN_POINT ( 'NONE',  ( -11.34999999999999964, 4.799999999999996270, 0.000000000000000000 ) ) ;
#19 = CIRCLE ( 'NONE', #68, 4.999999999999996447 ) ;
#20 = FACE_BOUND ( 'NONE', #298, .T. ) ;
#21 = FACE_OUTER_BOUND ( 'NONE', #191, .T. ) ;
#22 = PLANE ( 'NONE',  #108 ) ;
#23 = CARTESIAN_POINT ( 'NONE',  ( -10.24999999999999822, 0.000000000000000000, 0.000000000000000000 ) ) ;
#24 = FACE_OUTER_BOUND ( 'NONE', #83, .T. ) ;
#25 = CARTESIAN_POINT ( 'NONE',  ( 11.34999999999999964, 0.000000000000000000, 0.000000000000000000 ) ) ;
#26 = MECHANICAL_DESIGN_GEOMETRIC_PRESENTATION_REPRESENTATION (  '', ( #151 ), #33 ) ;
#27 = CARTESIAN_POINT ( 'NONE',  ( -12.50000000000000000, 0.000000000000000000, 0.000000000000000000 ) ) ;
#28 = CIRCLE ( 'NONE', #71, 4.799999999999997158 ) ;
#29 = EDGE_CURVE ( 'NONE', #230, #230, #172, .T. ) ;
#30 =( LENGTH_UNIT ( ) NAMED_UNIT ( * ) SI_UNIT ( .MILLI., .METRE. ) );
#31 = FACE_OUTER_BOUND ( 'NONE', #59, .T. ) ;
#32 = ORIENTED_EDGE ( 'NONE', *, *, #212, .T. ) ;
#33 =( GEOMETRIC_REPRESENTATION_CONTEXT ( 3 ) GLOBAL_UNCERTAINTY_ASSIGNED_CONTEXT ( ( #190 ) ) GLOBAL_UNIT_ASSIGNED_CONTEXT ( ( #292, #293, #202 ) ) REPRESENTATION_CONTEXT ( 'NONE', 'WORKASPACE' ) );
#34 = CIRCLE ( 'NONE', #61, 4.799999999999996270 ) ;
#35 = APPLICATION_PROTOCOL_DEFINITION ( 'draft international standard', 'automotive_design', 1998, #178 ) ;
#36 = ORIENTED_EDGE ( 'NONE', *, *, #119, .T. ) ;
#37 = SHAPE_DEFINITION_REPRESENTATION ( #240, #120 ) ;
#38 = ORIENTED_EDGE ( 'NONE', *, *, #55, .F. ) ;
#39 = CARTESIAN_POINT ( 'NONE',  ( -12.50000000000000000, 0.000000000000000000, 0.000000000000000000 ) ) ;
#40 = ORIENTED_EDGE ( 'NONE', *, *, #139, .F. ) ;
#41 = EDGE_CURVE ( 'NONE', #278, #278, #203, .T. ) ;
#42 = CONICAL_SURFACE ( 'NONE', #252, 4.999999999999996447, 0.5235987755983027014 ) ;
#43 = FACE_BOUND ( 'NONE', #164, .T. ) ;
#44 = DIRECTION ( 'NONE',  ( 0.000000000000000000, 0.000000000000000000, 1.000000000000000000 ) ) ;
#45 = FILL_AREA_STYLE_COLOUR ( '', #283 ) ;
#46 = FACE_OUTER_BOUND ( 'NONE', #282, .T. ) ;
#47 = DIRECTION ( 'NONE',  ( 0.000000000000000000, 0.000000000000000000, 1.000000000000000000 ) ) ;
#48 = DIRECTION ( 'NONE',  ( 0.000000000000000000, 0.000000000000000000, 1.000000000000000000 ) ) ;
#49 = AXIS2_PLACEMENT_3D ( 'NONE', #198, #270, #74 ) ;
#50 = FACE_BOUND ( 'NONE', #132, .T. ) ;
#51 = ADVANCED_FACE ( 'NONE', ( #21, #50 ), #76, .F. ) ;
#52 = ORIENTED_EDGE ( 'NONE', *, *, #241, .F. ) ;
#53 = DIRECTION ( 'NONE',  ( 0.000000000000000000, 0.000000000000000000, 1.000000000000000000 ) ) ;
#54 = AXIS2_PLACEMENT_3D ( 'NONE', #114, #65, #264 ) ;
#55 = EDGE_CURVE ( 'NONE', #146, #146, #28, .T. ) ;
#56 = VERTEX_POINT ( 'NONE', #2 ) ;
#57 = ORIENTED_EDGE ( 'NONE', *, *, #156, .F. ) ;
#58 = VERTEX_POINT ( 'NONE', #238 ) ;
#59 = EDGE_LOOP ( 'NONE', ( #216 ) ) ;
#60 = VERTEX_POINT ( 'NONE', #165 ) ;
#61 = AXIS2_PLACEMENT_3D ( 'NONE', #177, #70, #160 ) ;
#62 =( NAMED_UNIT ( * ) PLANE_ANGLE_UNIT ( ) SI_UNIT ( $, .RADIAN. ) );
#63 = CIRCLE ( 'NONE', #127, 5.000000000000000000 ) ;
#64 = ORIENTED_EDGE ( 'NONE', *, *, #249, .T. ) ;
#65 = DIRECTION ( 'NONE',  ( 0.000000000000000000, 0.000000000000000000, 1.000000000000000000 ) ) ;
#66 = ORIENTED_EDGE ( 'NONE', *, *, #232, .F. ) ;
#67 = EDGE_CURVE ( 'NONE', #1, #1, #106, .T. ) ;
#68 = AXIS2_PLACEMENT_3D ( 'NONE', #269, #154, #48 ) ;
#69 = FILL_AREA_STYLE ('',( #45 ) ) ;
#70 = DIRECTION ( 'NONE',  ( -1.000000000000000000, -0.000000000000000000, -0.000000000000000000 ) ) ;
#71 = AXIS2_PLACEMENT_3D ( 'NONE', #23, #300, #277 ) ;
#72 = CARTESIAN_POINT ( 'NONE',  ( 12.00000000000000000, 0.000000000000000000, 0.000000000000000000 ) ) ;
#73 = PLANE ( 'NONE',  #115 ) ;
#74 = DIRECTION ( 'NONE',  ( 0.000000000000000000, 0.000000000000000000, 1.000000000000000000 ) ) ;
#75 = ORIENTED_EDGE ( 'NONE', *, *, #249, .F. ) ;
#76 = PLANE ( 'NONE',  #291 ) ;
#77 = AXIS2_PLACEMENT_3D ( 'NONE', #254, #299, #81 ) ;
#78 = DIRECTION ( 'NONE',  ( 1.000000000000000000, 0.000000000000000000, 0.000000000000000000 ) ) ;
#79 = APPLICATION_PROTOCOL_DEFINITION ( 'draft international standard', 'automotive_design', 1998, #92 ) ;
#80 = ORIENTED_EDGE ( 'NONE', *, *, #41, .T. ) ;
#81 = DIRECTION ( 'NONE',  ( 0.000000000000000000, 0.000000000000000000, -1.000000000000000000 ) ) ;
#82 = MANIFOLD_SOLID_BREP ( 'Revolve1', #111 ) ;
#83 = EDGE_LOOP ( 'NONE', ( #64 ) ) ;
#84 = CARTESIAN_POINT ( 'NONE',  ( -11.34999999999999964, 0.000000000000000000, 4.999999999999997335 ) ) ;
#85 = EDGE_LOOP ( 'NONE', ( #207 ) ) ;
#86 = DIRECTION ( 'NONE',  ( 0.000000000000000000, 0.000000000000000000, -1.000000000000000000 ) ) ;
#87 = EDGE_LOOP ( 'NONE', ( #32 ) ) ;
#88 = FILL_AREA_STYLE ('',( #286 ) ) ;
#89 = ADVANCED_FACE ( 'NONE', ( #225, #24 ), #42, .T. ) ;
#90 = AXIS2_PLACEMENT_3D ( 'NONE', #184, #157, #144 ) ;
#91 = ORIENTED_EDGE ( 'NONE', *, *, #139, .T. ) ;
#92 = APPLICATION_CONTEXT ( 'automotive_design' ) ;
#93 = ADVANCED_FACE ( 'NONE', ( #140, #43 ), #273, .F. ) ;
#94 = DIRECTION ( 'NONE',  ( -1.000000000000000000, -0.000000000000000000, -0.000000000000000000 ) ) ;
#95 = SURFACE_STYLE_USAGE ( .BOTH. , #244 ) ;
#96 = DIRECTION ( 'NONE',  ( 0.000000000000000000, 0.000000000000000000, 1.000000000000000000 ) ) ;
#97 = DIRECTION ( 'NONE',  ( 0.000000000000000000, 0.000000000000000000, 1.000000000000000000 ) ) ;
#98 = CYLINDRICAL_SURFACE ( 'NONE', #155, 4.999999999999999112 ) ;
#99 = CARTESIAN_POINT ( 'NONE',  ( 10.24999999999999822, 0.000000000000000000, 0.000000000000000000 ) ) ;
#100 = DIRECTION ( 'NONE',  ( -1.000000000000000000, -0.000000000000000000, -0.000000000000000000 ) ) ;
#101 = CARTESIAN_POINT ( 'NONE',  ( 11.34999999999999964, 0.000000000000000000, 0.000000000000000000 ) ) ;
#102 = DIRECTION ( 'NONE',  ( -1.000000000000000000, -0.000000000000000000, -0.000000000000000000 ) ) ;
#103 = ADVANCED_FACE ( 'NONE', ( #143, #46 ), #223, .T. ) ;
#104 = DIRECTION ( 'NONE',  ( -1.000000000000000000, 0.000000000000000000, -0.000000000000000000 ) ) ;
#105 = ORIENTED_EDGE ( 'NONE', *, *, #67, .F. ) ;
#106 = CIRCLE ( 'NONE', #163, 5.000000000000000000 ) ;
#107 = FACE_BOUND ( 'NONE', #133, .T. ) ;
#108 = AXIS2_PLACEMENT_3D ( 'NONE', #124, #78, #253 ) ;
#109 = CARTESIAN_POINT ( 'NONE',  ( -10.24999999999999822, 0.000000000000000000, 0.000000000000000000 ) ) ;
#110 = EDGE_LOOP ( 'NONE', ( #166 ) ) ;
#111 = CLOSED_SHELL ( 'NONE', ( #122, #228, #194, #176, #271, #93, #14, #289, #3, #51, #103, #89, #267 ) ) ;
#112 = PRODUCT_CONTEXT ( 'NONE', #178, 'mechanical' ) ;
#113 = AXIS2_PLACEMENT_3D ( 'NONE', #16, #100, #97 ) ;
#114 = CARTESIAN_POINT ( 'NONE',  ( 0.000000000000000000, 0.000000000000000000, 0.000000000000000000 ) ) ;
#115 = AXIS2_PLACEMENT_3D ( 'NONE', #131, #281, #86 ) ;
#116 = PRESENTATION_STYLE_ASSIGNMENT (( #95 ) ) ;
#117 =( GEOMETRIC_REPRESENTATION_CONTEXT ( 3 ) GLOBAL_UNCERTAINTY_ASSIGNED_CONTEXT ( ( #135 ) ) GLOBAL_UNIT_ASSIGNED_CONTEXT ( ( #175, #204, #297 ) ) REPRESENTATION_CONTEXT ( 'NONE', 'WORKASPACE' ) );
#118 = FACE_BOUND ( 'NONE', #280, .T. ) ;
#119 = EDGE_CURVE ( 'NONE', #260, #260, #246, .T. ) ;
#120 = ADVANCED_BREP_SHAPE_REPRESENTATION ( '76.04.07.0002', ( #82, #54 ), #276 ) ;
#121 = DIRECTION ( 'NONE',  ( -1.000000000000000000, -0.000000000000000000, -0.000000000000000000 ) ) ;
#122 = ADVANCED_FACE ( 'NONE', ( #15 ), #142, .F. ) ;
#123 = CIRCLE ( 'NONE', #221, 4.711324865405180695 ) ;
#124 = CARTESIAN_POINT ( 'NONE',  ( 11.34999999999999964, 5.000000000000000000, 0.000000000000000000 ) ) ;
#125 = DIRECTION ( 'NONE',  ( -1.000000000000000000, -0.000000000000000000, -0.000000000000000000 ) ) ;
#126 = CONICAL_SURFACE ( 'NONE', #49, 4.711324865405180695, 0.5235987755983066982 ) ;
#127 = AXIS2_PLACEMENT_3D ( 'NONE', #99, #226, #180 ) ;
#128 = DIRECTION ( 'NONE',  ( 0.000000000000000000, 0.000000000000000000, 1.000000000000000000 ) ) ;
#129 = CYLINDRICAL_SURFACE ( 'NONE', #196, 4.799999999999997158 ) ;
#130 = AXIS2_PLACEMENT_3D ( 'NONE', #296, #104, #251 ) ;
#131 = CARTESIAN_POINT ( 'NONE',  ( -12.50000000000000000, 4.711324865405180695, 0.000000000000000000 ) ) ;
#132 = EDGE_LOOP ( 'NONE', ( #261 ) ) ;
#133 = EDGE_LOOP ( 'NONE', ( #38 ) ) ;
#134 = PRESENTATION_STYLE_ASSIGNMENT (( #8 ) ) ;
#135 = UNCERTAINTY_MEASURE_WITH_UNIT (LENGTH_MEASURE( 1.000000000000000082E-05 ), #175, 'distance_accuracy_value', 'NONE');
#136 = STYLED_ITEM ( 'NONE', ( #116 ), #82 ) ;
#137 = CARTESIAN_POINT ( 'NONE',  ( -12.50000000000000000, 0.000000000000000000, 0.000000000000000000 ) ) ;
#138 = DIRECTION ( 'NONE',  ( 0.000000000000000000, 0.000000000000000000, 1.000000000000000000 ) ) ;
#139 = EDGE_CURVE ( 'NONE', #58, #58, #63, .T. ) ;
#140 = FACE_OUTER_BOUND ( 'NONE', #168, .T. ) ;
#141 = DIRECTION ( 'NONE',  ( -1.000000000000000000, 0.000000000000000000, -0.000000000000000000 ) ) ;
#142 = PLANE ( 'NONE',  #90 ) ;
#143 = FACE_OUTER_BOUND ( 'NONE', #284, .T. ) ;
#144 = DIRECTION ( 'NONE',  ( -0.000000000000000000, 0.000000000000000000, 1.000000000000000000 ) ) ;
#145 = CARTESIAN_POINT ( 'NONE',  ( 12.00000000000000000, 0.000000000000000000, 4.999999999999999112 ) ) ;
#146 = VERTEX_POINT ( 'NONE', #234 ) ;
#147 = ORIENTED_EDGE ( 'NONE', *, *, #241, .T. ) ;
#148 = DIRECTION ( 'NONE',  ( -1.000000000000000000, -0.000000000000000000, -0.000000000000000000 ) ) ;
#149 = ORIENTED_EDGE ( 'NONE', *, *, #29, .F. ) ;
#150 = VERTEX_POINT ( 'NONE', #4 ) ;
#151 = STYLED_ITEM ( 'NONE', ( #134 ), #120 ) ;
#152 = ORIENTED_EDGE ( 'NONE', *, *, #41, .F. ) ;
#153 = MECHANICAL_DESIGN_GEOMETRIC_PRESENTATION_REPRESENTATION (  '', ( #136 ), #117 ) ;
#154 = DIRECTION ( 'NONE',  ( -1.000000000000000000, -0.000000000000000000, -0.000000000000000000 ) ) ;
#155 = AXIS2_PLACEMENT_3D ( 'NONE', #39, #9, #205 ) ;
#156 = EDGE_CURVE ( 'NONE', #285, #285, #123, .T. ) ;
#157 = DIRECTION ( 'NONE',  ( -1.000000000000000000, 0.000000000000000000, -0.000000000000000000 ) ) ;
#158 = CARTESIAN_POINT ( 'NONE',  ( 12.50000000000000000, 0.000000000000000000, 0.000000000000000000 ) ) ;
#159 = DIRECTION ( 'NONE',  ( 0.000000000000000000, 0.000000000000000000, 1.000000000000000000 ) ) ;
#160 = DIRECTION ( 'NONE',  ( 0.000000000000000000, 0.000000000000000000, 1.000000000000000000 ) ) ;
#161 = DIRECTION ( 'NONE',  ( 0.000000000000000000, 0.000000000000000000, 1.000000000000000000 ) ) ;
#162 = AXIS2_PLACEMENT_3D ( 'NONE', #101, #13, #44 ) ;
#163 = AXIS2_PLACEMENT_3D ( 'NONE', #25, #125, #209 ) ;
#164 = EDGE_LOOP ( 'NONE', ( #147 ) ) ;
#165 = CARTESIAN_POINT ( 'NONE',  ( 11.34999999999999964, 0.000000000000000000, 4.799999999999998934 ) ) ;
#166 = ORIENTED_EDGE ( 'NONE', *, *, #119, .F. ) ;
#167 = CYLINDRICAL_SURFACE ( 'NONE', #237, 4.799999999999998934 ) ;
#168 = EDGE_LOOP ( 'NONE', ( #40 ) ) ;
#169 = CARTESIAN_POINT ( 'NONE',  ( -11.34999999999999964, 0.000000000000000000, 4.799999999999996270 ) ) ;
#170 = CARTESIAN_POINT ( 'NONE',  ( -12.50000000000000000, 0.000000000000000000, 4.711324865405180695 ) ) ;
#171 = SURFACE_STYLE_FILL_AREA ( #88 ) ;
#172 = CIRCLE ( 'NONE', #193, 4.999999999999997335 ) ;
#173 = EDGE_LOOP ( 'NONE', ( #52 ) ) ;
#174 = PRODUCT_DEFINITION ( 'UNKNOWN', '', #256, #272 ) ;
#175 =( LENGTH_UNIT ( ) NAMED_UNIT ( * ) SI_UNIT ( .MILLI., .METRE. ) );
#176 = ADVANCED_FACE ( 'NONE', ( #20, #183 ), #22, .F. ) ;
#177 = CARTESIAN_POINT ( 'NONE',  ( -11.34999999999999964, 0.000000000000000000, 0.000000000000000000 ) ) ;
#178 = APPLICATION_CONTEXT ( 'automotive_design' ) ;
#179 = CIRCLE ( 'NONE', #113, 4.799999999999999822 ) ;
#180 = DIRECTION ( 'NONE',  ( 0.000000000000000000, 0.000000000000000000, 1.000000000000000000 ) ) ;
#181 = FACE_OUTER_BOUND ( 'NONE', #85, .T. ) ;
#182 = DIRECTION ( 'NONE',  ( 1.000000000000000000, 0.000000000000000000, 0.000000000000000000 ) ) ;
#183 = FACE_OUTER_BOUND ( 'NONE', #220, .T. ) ;
#184 = CARTESIAN_POINT ( 'NONE',  ( 12.50000000000000000, 0.000000000000000000, 0.000000000000000000 ) ) ;
#185 = CARTESIAN_POINT ( 'NONE',  ( -11.34999999999999964, 0.000000000000000000, 0.000000000000000000 ) ) ;
#186 = EDGE_LOOP ( 'NONE', ( #105 ) ) ;
#187 = UNCERTAINTY_MEASURE_WITH_UNIT (LENGTH_MEASURE( 1.000000000000000082E-05 ), #30, 'distance_accuracy_value', 'NONE');
#188 = EDGE_LOOP ( 'NONE', ( #66 ) ) ;
#189 = CARTESIAN_POINT ( 'NONE',  ( 11.34999999999999964, 0.000000000000000000, 5.000000000000000000 ) ) ;
#190 = UNCERTAINTY_MEASURE_WITH_UNIT (LENGTH_MEASURE( 1.000000000000000082E-05 ), #292, 'distance_accuracy_value', 'NONE');
#191 = EDGE_LOOP ( 'NONE', ( #149 ) ) ;
#192 = EDGE_LOOP ( 'NONE', ( #91 ) ) ;
#193 = AXIS2_PLACEMENT_3D ( 'NONE', #185, #102, #275 ) ;
#194 = ADVANCED_FACE ( 'NONE', ( #197, #295 ), #201, .T. ) ;
#195 = CIRCLE ( 'NONE', #219, 4.999999999999997335 ) ;
#196 = AXIS2_PLACEMENT_3D ( 'NONE', #214, #94, #96 ) ;
#197 = FACE_OUTER_BOUND ( 'NONE', #186, .T. ) ;
#198 = CARTESIAN_POINT ( 'NONE',  ( 12.50000000000000000, 0.000000000000000000, 0.000000000000000000 ) ) ;
#199 = FACE_OUTER_BOUND ( 'NONE', #192, .T. ) ;
#200 = DIRECTION ( 'NONE',  ( -1.000000000000000000, -0.000000000000000000, -0.000000000000000000 ) ) ;
#201 = CYLINDRICAL_SURFACE ( 'NONE', #242, 4.999999999999999112 ) ;
#202 =( NAMED_UNIT ( * ) SI_UNIT ( $, .STERADIAN. ) SOLID_ANGLE_UNIT ( ) );
#203 = CIRCLE ( 'NONE', #268, 4.711324865405180695 ) ;
#204 =( NAMED_UNIT ( * ) PLANE_ANGLE_UNIT ( ) SI_UNIT ( $, .RADIAN. ) );
#205 = DIRECTION ( 'NONE',  ( 0.000000000000000000, 0.000000000000000000, 1.000000000000000000 ) ) ;
#206 = PRODUCT_RELATED_PRODUCT_CATEGORY ( 'part', '', ( #288 ) ) ;
#207 = ORIENTED_EDGE ( 'NONE', *, *, #156, .T. ) ;
#208 = FACE_OUTER_BOUND ( 'NONE', #87, .T. ) ;
#209 = DIRECTION ( 'NONE',  ( 0.000000000000000000, 0.000000000000000000, 1.000000000000000000 ) ) ;
#210 = AXIS2_PLACEMENT_3D ( 'NONE', #137, #229, #159 ) ;
#211 = FACE_OUTER_BOUND ( 'NONE', #255, .T. ) ;
#212 = EDGE_CURVE ( 'NONE', #60, #60, #266, .T. ) ;
#213 = PLANE ( 'NONE',  #77 ) ;
#214 = CARTESIAN_POINT ( 'NONE',  ( -12.50000000000000000, 0.000000000000000000, 0.000000000000000000 ) ) ;
#215 = FACE_OUTER_BOUND ( 'NONE', #173, .T. ) ;
#216 = ORIENTED_EDGE ( 'NONE', *, *, #55, .T. ) ;
#217 =( NAMED_UNIT ( * ) SI_UNIT ( $, .STERADIAN. ) SOLID_ANGLE_UNIT ( ) );
#218 = EDGE_LOOP ( 'NONE', ( #152 ) ) ;
#219 = AXIS2_PLACEMENT_3D ( 'NONE', #109, #148, #53 ) ;
#220 = EDGE_LOOP ( 'NONE', ( #265 ) ) ;
#221 = AXIS2_PLACEMENT_3D ( 'NONE', #227, #121, #47 ) ;
#222 = COLOUR_RGB ( '',0.7764705882352941346, 0.7568627450980391913, 0.7372549019607843590 ) ;
#223 = CYLINDRICAL_SURFACE ( 'NONE', #210, 4.999999999999997335 ) ;
#224 = DIRECTION ( 'NONE',  ( -1.000000000000000000, -0.000000000000000000, -0.000000000000000000 ) ) ;
#225 = FACE_BOUND ( 'NONE', #5, .T. ) ;
#226 = DIRECTION ( 'NONE',  ( -1.000000000000000000, -0.000000000000000000, -0.000000000000000000 ) ) ;
#227 = CARTESIAN_POINT ( 'NONE',  ( -12.50000000000000000, 0.000000000000000000, 0.000000000000000000 ) ) ;
#228 = ADVANCED_FACE ( 'NONE', ( #250, #118 ), #126, .T. ) ;
#229 = DIRECTION ( 'NONE',  ( -1.000000000000000000, -0.000000000000000000, -0.000000000000000000 ) ) ;
#230 = VERTEX_POINT ( 'NONE', #84 ) ;
#231 = DIRECTION ( 'NONE',  ( -0.000000000000000000, 0.000000000000000000, 1.000000000000000000 ) ) ;
#232 = EDGE_CURVE ( 'NONE', #236, #236, #34, .T. ) ;
#233 = VERTEX_POINT ( 'NONE', #257 ) ;
#234 = CARTESIAN_POINT ( 'NONE',  ( -10.24999999999999822, 0.000000000000000000, 4.799999999999997158 ) ) ;
#235 = FACE_OUTER_BOUND ( 'NONE', #188, .T. ) ;
#236 = VERTEX_POINT ( 'NONE', #169 ) ;
#237 = AXIS2_PLACEMENT_3D ( 'NONE', #27, #259, #128 ) ;
#238 = CARTESIAN_POINT ( 'NONE',  ( 10.24999999999999822, 0.000000000000000000, 5.000000000000000000 ) ) ;
#239 = FACE_OUTER_BOUND ( 'NONE', #258, .T. ) ;
#240 = PRODUCT_DEFINITION_SHAPE ( 'NONE', 'NONE',  #174 ) ;
#241 = EDGE_CURVE ( 'NONE', #233, #233, #179, .T. ) ;
#242 = AXIS2_PLACEMENT_3D ( 'NONE', #274, #224, #138 ) ;
#243 = PRESENTATION_LAYER_ASSIGNMENT (  '', '', ( #136 ) ) ;
#244 = SURFACE_SIDE_STYLE ('',( #11 ) ) ;
#245 = DIRECTION ( 'NONE',  ( 0.000000000000000000, 0.000000000000000000, -1.000000000000000000 ) ) ;
#246 = CIRCLE ( 'NONE', #12, 4.999999999999999112 ) ;
#247 = DIRECTION ( 'NONE',  ( 0.000000000000000000, 0.000000000000000000, 1.000000000000000000 ) ) ;
#248 = DIRECTION ( 'NONE',  ( -1.000000000000000000, -0.000000000000000000, -0.000000000000000000 ) ) ;
#249 = EDGE_CURVE ( 'NONE', #150, #150, #19, .T. ) ;
#250 = FACE_OUTER_BOUND ( 'NONE', #110, .T. ) ;
#251 = DIRECTION ( 'NONE',  ( -0.000000000000000000, 0.000000000000000000, 1.000000000000000000 ) ) ;
#252 = AXIS2_PLACEMENT_3D ( 'NONE', #279, #182, #245 ) ;
#253 = DIRECTION ( 'NONE',  ( 0.000000000000000000, 0.000000000000000000, -1.000000000000000000 ) ) ;
#254 = CARTESIAN_POINT ( 'NONE',  ( -10.24999999999999822, 4.999999999999997335, 0.000000000000000000 ) ) ;
#255 = EDGE_LOOP ( 'NONE', ( #7 ) ) ;
#256 = PRODUCT_DEFINITION_FORMATION_WITH_SPECIFIED_SOURCE ( 'ANY', '', #288, .NOT_KNOWN. ) ;
#257 = CARTESIAN_POINT ( 'NONE',  ( 10.24999999999999822, 0.000000000000000000, 4.799999999999999822 ) ) ;
#258 = EDGE_LOOP ( 'NONE', ( #287 ) ) ;
#259 = DIRECTION ( 'NONE',  ( -1.000000000000000000, -0.000000000000000000, -0.000000000000000000 ) ) ;
#260 = VERTEX_POINT ( 'NONE', #145 ) ;
#261 = ORIENTED_EDGE ( 'NONE', *, *, #232, .T. ) ;
#262 = PRESENTATION_LAYER_ASSIGNMENT (  '', '', ( #151 ) ) ;
#263 = CARTESIAN_POINT ( 'NONE',  ( 12.50000000000000000, 0.000000000000000000, 4.711324865405180695 ) ) ;
#264 = DIRECTION ( 'NONE',  ( 1.000000000000000000, 0.000000000000000000, 0.000000000000000000 ) ) ;
#265 = ORIENTED_EDGE ( 'NONE', *, *, #67, .T. ) ;
#266 = CIRCLE ( 'NONE', #162, 4.799999999999998934 ) ;
#267 = ADVANCED_FACE ( 'NONE', ( #181 ), #73, .F. ) ;
#268 = AXIS2_PLACEMENT_3D ( 'NONE', #158, #248, #161 ) ;
#269 = CARTESIAN_POINT ( 'NONE',  ( -12.00000000000000000, 0.000000000000000000, 0.000000000000000000 ) ) ;
#270 = DIRECTION ( 'NONE',  ( -1.000000000000000000, -0.000000000000000000, -0.000000000000000000 ) ) ;
#271 = ADVANCED_FACE ( 'NONE', ( #215, #208 ), #167, .T. ) ;
#272 = PRODUCT_DEFINITION_CONTEXT ( 'detailed design', #92, 'design' ) ;
#273 = PLANE ( 'NONE',  #130 ) ;
#274 = CARTESIAN_POINT ( 'NONE',  ( -12.50000000000000000, 0.000000000000000000, 0.000000000000000000 ) ) ;
#275 = DIRECTION ( 'NONE',  ( 0.000000000000000000, 0.000000000000000000, 1.000000000000000000 ) ) ;
#276 =( GEOMETRIC_REPRESENTATION_CONTEXT ( 3 ) GLOBAL_UNCERTAINTY_ASSIGNED_CONTEXT ( ( #187 ) ) GLOBAL_UNIT_ASSIGNED_CONTEXT ( ( #30, #62, #217 ) ) REPRESENTATION_CONTEXT ( 'NONE', 'WORKASPACE' ) );
#277 = DIRECTION ( 'NONE',  ( 0.000000000000000000, 0.000000000000000000, 1.000000000000000000 ) ) ;
#278 = VERTEX_POINT ( 'NONE', #263 ) ;
#279 = CARTESIAN_POINT ( 'NONE',  ( -12.00000000000000000, 0.000000000000000000, 0.000000000000000000 ) ) ;
#280 = EDGE_LOOP ( 'NONE', ( #80 ) ) ;
#281 = DIRECTION ( 'NONE',  ( 1.000000000000000000, 0.000000000000000000, 0.000000000000000000 ) ) ;
#282 = EDGE_LOOP ( 'NONE', ( #10 ) ) ;
#283 = COLOUR_RGB ( '',0.7764705882352941346, 0.7568627450980391913, 0.7372549019607843590 ) ;
#284 = EDGE_LOOP ( 'NONE', ( #75 ) ) ;
#285 = VERTEX_POINT ( 'NONE', #170 ) ;
#286 = FILL_AREA_STYLE_COLOUR ( '', #222 ) ;
#287 = ORIENTED_EDGE ( 'NONE', *, *, #294, .F. ) ;
#288 = PRODUCT ( '76.04.07.0002', '76.04.07.0002', '', ( #112 ) ) ;
#289 = ADVANCED_FACE ( 'NONE', ( #107, #211 ), #213, .F. ) ;
#290 = ORIENTED_EDGE ( 'NONE', *, *, #212, .F. ) ;
#291 = AXIS2_PLACEMENT_3D ( 'NONE', #18, #141, #231 ) ;
#292 =( LENGTH_UNIT ( ) NAMED_UNIT ( * ) SI_UNIT ( .MILLI., .METRE. ) );
#293 =( NAMED_UNIT ( * ) PLANE_ANGLE_UNIT ( ) SI_UNIT ( $, .RADIAN. ) );
#294 = EDGE_CURVE ( 'NONE', #56, #56, #195, .T. ) ;
#295 = FACE_OUTER_BOUND ( 'NONE', #6, .T. ) ;
#296 = CARTESIAN_POINT ( 'NONE',  ( 10.24999999999999822, 4.799999999999999822, 0.000000000000000000 ) ) ;
#297 =( NAMED_UNIT ( * ) SI_UNIT ( $, .STERADIAN. ) SOLID_ANGLE_UNIT ( ) );
#298 = EDGE_LOOP ( 'NONE', ( #290 ) ) ;
#299 = DIRECTION ( 'NONE',  ( 1.000000000000000000, 0.000000000000000000, 0.000000000000000000 ) ) ;
#300 = DIRECTION ( 'NONE',  ( -1.000000000000000000, -0.000000000000000000, -0.000000000000000000 ) ) ;
ENDSEC;
END-ISO-10303-21;
