ISO-10303-21;
HEADER;
FILE_DESCRIPTION (( 'STEP AP214' ),
    '1' );
FILE_NAME ('76.04.06.0009.step',
    '2021-04-02T18:04:37',
    ( '' ),
    ( '' ),
    'SwSTEP 2.0',
    'SolidWorks 2021',
    '' );
FILE_SCHEMA (( 'AUTOMOTIVE_DESIGN' ));
ENDSEC;

DATA;
#1 = EDGE_LOOP ( 'NONE', ( #256 ) ) ;
#2 = EDGE_LOOP ( 'NONE', ( #30 ) ) ;
#3 = ADVANCED_FACE ( 'NONE', ( #168, #107 ), #280, .T. ) ;
#4 = AXIS2_PLACEMENT_3D ( 'NONE', #79, #185, #238 ) ;
#5 =( LENGTH_UNIT ( ) NAMED_UNIT ( * ) SI_UNIT ( .MILLI., .METRE. ) );
#6 = DIRECTION ( 'NONE',  ( 0.000000000000000000, 0.000000000000000000, 1.000000000000000000 ) ) ;
#7 = AXIS2_PLACEMENT_3D ( 'NONE', #159, #181, #235 ) ;
#8 = FACE_OUTER_BOUND ( 'NONE', #232, .T. ) ;
#9 = DIRECTION ( 'NONE',  ( -1.000000000000000000, -0.000000000000000000, -0.000000000000000000 ) ) ;
#10 = DIRECTION ( 'NONE',  ( 0.000000000000000000, 0.000000000000000000, 1.000000000000000000 ) ) ;
#11 = PRESENTATION_LAYER_ASSIGNMENT (  '', '', ( #298 ) ) ;
#12 = CIRCLE ( 'NONE', #40, 14.30000000000000426 ) ;
#13 = EDGE_CURVE ( 'NONE', #250, #250, #36, .T. ) ;
#14 = ADVANCED_FACE ( 'NONE', ( #229, #284 ), #147, .T. ) ;
#15 = VERTEX_POINT ( 'NONE', #205 ) ;
#16 = DIRECTION ( 'NONE',  ( 1.000000000000000000, 0.000000000000000000, 0.000000000000000000 ) ) ;
#17 = FACE_OUTER_BOUND ( 'NONE', #1, .T. ) ;
#18 = AXIS2_PLACEMENT_3D ( 'NONE', #156, #16, #101 ) ;
#19 = DIRECTION ( 'NONE',  ( -1.000000000000000000, -0.000000000000000000, -0.000000000000000000 ) ) ;
#20 = CIRCLE ( 'NONE', #190, 14.42264973081036317 ) ;
#21 = VERTEX_POINT ( 'NONE', #293 ) ;
#22 = DIRECTION ( 'NONE',  ( -1.000000000000000000, -0.000000000000000000, -0.000000000000000000 ) ) ;
#23 = CARTESIAN_POINT ( 'NONE',  ( -32.50000000000000000, 0.000000000000000000, 0.000000000000000000 ) ) ;
#24 = PLANE ( 'NONE',  #7 ) ;
#25 = CARTESIAN_POINT ( 'NONE',  ( -31.50000000000000000, 0.000000000000000000, 0.000000000000000000 ) ) ;
#26 = DIRECTION ( 'NONE',  ( 0.000000000000000000, 0.000000000000000000, 1.000000000000000000 ) ) ;
#27 = DIRECTION ( 'NONE',  ( 0.000000000000000000, 0.000000000000000000, 1.000000000000000000 ) ) ;
#28 = DIRECTION ( 'NONE',  ( 0.000000000000000000, 0.000000000000000000, 1.000000000000000000 ) ) ;
#29 = EDGE_LOOP ( 'NONE', ( #106 ) ) ;
#30 = ORIENTED_EDGE ( 'NONE', *, *, #103, .F. ) ;
#31 = EDGE_CURVE ( 'NONE', #188, #188, #247, .T. ) ;
#32 = CARTESIAN_POINT ( 'NONE',  ( 32.50000000000000000, 0.000000000000000000, 0.000000000000000000 ) ) ;
#33 = PRESENTATION_STYLE_ASSIGNMENT (( #263 ) ) ;
#34 = CIRCLE ( 'NONE', #59, 14.42264973081036317 ) ;
#35 =( LENGTH_UNIT ( ) NAMED_UNIT ( * ) SI_UNIT ( .MILLI., .METRE. ) );
#36 = CIRCLE ( 'NONE', #4, 14.30000000000000071 ) ;
#37 = DIRECTION ( 'NONE',  ( -1.000000000000000000, -0.000000000000000000, -0.000000000000000000 ) ) ;
#38 = EDGE_LOOP ( 'NONE', ( #166 ) ) ;
#39 = CARTESIAN_POINT ( 'NONE',  ( 32.50000000000000000, 0.000000000000000000, 0.000000000000000000 ) ) ;
#40 = AXIS2_PLACEMENT_3D ( 'NONE', #223, #9, #127 ) ;
#41 = DIRECTION ( 'NONE',  ( -0.000000000000000000, 0.000000000000000000, 1.000000000000000000 ) ) ;
#42 = EDGE_CURVE ( 'NONE', #251, #251, #224, .T. ) ;
#43 = CARTESIAN_POINT ( 'NONE',  ( -27.75000000000000355, 0.000000000000000000, 14.99999999999999645 ) ) ;
#44 = DIRECTION ( 'NONE',  ( 0.000000000000000000, 0.000000000000000000, 1.000000000000000000 ) ) ;
#45 = ORIENTED_EDGE ( 'NONE', *, *, #13, .T. ) ;
#46 = CARTESIAN_POINT ( 'NONE',  ( -29.35000000000000142, 0.000000000000000000, 14.99999999999999467 ) ) ;
#47 = EDGE_LOOP ( 'NONE', ( #212 ) ) ;
#48 = DIRECTION ( 'NONE',  ( 0.000000000000000000, 0.000000000000000000, 1.000000000000000000 ) ) ;
#49 = SURFACE_STYLE_USAGE ( .BOTH. , #70 ) ;
#50 = AXIS2_PLACEMENT_3D ( 'NONE', #142, #257, #48 ) ;
#51 = EDGE_LOOP ( 'NONE', ( #80 ) ) ;
#52 = FACE_OUTER_BOUND ( 'NONE', #47, .T. ) ;
#53 = DIRECTION ( 'NONE',  ( 0.000000000000000000, 0.000000000000000000, 1.000000000000000000 ) ) ;
#54 = ORIENTED_EDGE ( 'NONE', *, *, #103, .T. ) ;
#55 = DIRECTION ( 'NONE',  ( 0.000000000000000000, 0.000000000000000000, 1.000000000000000000 ) ) ;
#56 = EDGE_CURVE ( 'NONE', #228, #228, #125, .T. ) ;
#57 = ORIENTED_EDGE ( 'NONE', *, *, #86, .F. ) ;
#58 = DIRECTION ( 'NONE',  ( 1.000000000000000000, 0.000000000000000000, 0.000000000000000000 ) ) ;
#59 = AXIS2_PLACEMENT_3D ( 'NONE', #178, #94, #27 ) ;
#60 = ADVANCED_FACE ( 'NONE', ( #124, #118 ), #209, .T. ) ;
#61 = PLANE ( 'NONE',  #150 ) ;
#62 = FACE_OUTER_BOUND ( 'NONE', #278, .T. ) ;
#63 = EDGE_LOOP ( 'NONE', ( #145 ) ) ;
#64 = ADVANCED_FACE ( 'NONE', ( #195, #62 ), #286, .T. ) ;
#65 = CARTESIAN_POINT ( 'NONE',  ( 27.75000000000000355, 0.000000000000000000, 0.000000000000000000 ) ) ;
#66 = CIRCLE ( 'NONE', #268, 14.29999999999999716 ) ;
#67 = DIRECTION ( 'NONE',  ( 0.000000000000000000, 0.000000000000000000, 1.000000000000000000 ) ) ;
#68 = AXIS2_PLACEMENT_3D ( 'NONE', #104, #19, #71 ) ;
#69 = PLANE ( 'NONE',  #18 ) ;
#70 = SURFACE_SIDE_STYLE ('',( #272 ) ) ;
#71 = DIRECTION ( 'NONE',  ( 0.000000000000000000, 0.000000000000000000, 1.000000000000000000 ) ) ;
#72 = PRODUCT_CONTEXT ( 'NONE', #170, 'mechanical' ) ;
#73 = ADVANCED_FACE ( 'NONE', ( #129, #83 ), #61, .F. ) ;
#74 = DIRECTION ( 'NONE',  ( -1.000000000000000000, -0.000000000000000000, -0.000000000000000000 ) ) ;
#75 = DIRECTION ( 'NONE',  ( 0.000000000000000000, 0.000000000000000000, 1.000000000000000000 ) ) ;
#76 = PRODUCT_DEFINITION_FORMATION_WITH_SPECIFIED_SOURCE ( 'ANY', '', #226, .NOT_KNOWN. ) ;
#77 = DIRECTION ( 'NONE',  ( -1.000000000000000000, -0.000000000000000000, -0.000000000000000000 ) ) ;
#78 = CARTESIAN_POINT ( 'NONE',  ( 29.35000000000000142, 0.000000000000000000, 0.000000000000000000 ) ) ;
#79 = CARTESIAN_POINT ( 'NONE',  ( -29.35000000000000142, 0.000000000000000000, 0.000000000000000000 ) ) ;
#80 = ORIENTED_EDGE ( 'NONE', *, *, #243, .F. ) ;
#81 = FILL_AREA_STYLE_COLOUR ( '', #201 ) ;
#82 = MANIFOLD_SOLID_BREP ( 'Revolve1', #139 ) ;
#83 = FACE_BOUND ( 'NONE', #242, .T. ) ;
#84 =( NAMED_UNIT ( * ) SI_UNIT ( $, .STERADIAN. ) SOLID_ANGLE_UNIT ( ) );
#85 = EDGE_LOOP ( 'NONE', ( #282 ) ) ;
#86 = EDGE_CURVE ( 'NONE', #132, #132, #12, .T. ) ;
#87 = FACE_BOUND ( 'NONE', #51, .T. ) ;
#88 = FACE_OUTER_BOUND ( 'NONE', #63, .T. ) ;
#89 = AXIS2_PLACEMENT_3D ( 'NONE', #204, #93, #244 ) ;
#90 = DIRECTION ( 'NONE',  ( -1.000000000000000000, 0.000000000000000000, -0.000000000000000000 ) ) ;
#91 = PLANE ( 'NONE',  #89 ) ;
#92 = PRODUCT_DEFINITION_SHAPE ( 'NONE', 'NONE',  #211 ) ;
#93 = DIRECTION ( 'NONE',  ( 1.000000000000000000, 0.000000000000000000, 0.000000000000000000 ) ) ;
#94 = DIRECTION ( 'NONE',  ( -1.000000000000000000, -0.000000000000000000, -0.000000000000000000 ) ) ;
#95 = ADVANCED_FACE ( 'NONE', ( #285 ), #172, .F. ) ;
#96 = CYLINDRICAL_SURFACE ( 'NONE', #154, 15.00000000000000000 ) ;
#97 = ADVANCED_FACE ( 'NONE', ( #87, #8 ), #91, .F. ) ;
#98 = EDGE_LOOP ( 'NONE', ( #198 ) ) ;
#99 = VERTEX_POINT ( 'NONE', #186 ) ;
#100 = EDGE_LOOP ( 'NONE', ( #193 ) ) ;
#101 = DIRECTION ( 'NONE',  ( 0.000000000000000000, 0.000000000000000000, -1.000000000000000000 ) ) ;
#102 = CIRCLE ( 'NONE', #200, 15.00000000000000000 ) ;
#103 = EDGE_CURVE ( 'NONE', #115, #115, #20, .T. ) ;
#104 = CARTESIAN_POINT ( 'NONE',  ( -32.50000000000000000, 0.000000000000000000, 0.000000000000000000 ) ) ;
#105 = AXIS2_PLACEMENT_3D ( 'NONE', #32, #148, #241 ) ;
#106 = ORIENTED_EDGE ( 'NONE', *, *, #42, .T. ) ;
#107 = FACE_OUTER_BOUND ( 'NONE', #98, .T. ) ;
#108 = CARTESIAN_POINT ( 'NONE',  ( -32.50000000000000000, 0.000000000000000000, 0.000000000000000000 ) ) ;
#109 = AXIS2_PLACEMENT_3D ( 'NONE', #146, #55, #58 ) ;
#110 =( GEOMETRIC_REPRESENTATION_CONTEXT ( 3 ) GLOBAL_UNCERTAINTY_ASSIGNED_CONTEXT ( ( #219 ) ) GLOBAL_UNIT_ASSIGNED_CONTEXT ( ( #35, #215, #84 ) ) REPRESENTATION_CONTEXT ( 'NONE', 'WORKASPACE' ) );
#111 = CARTESIAN_POINT ( 'NONE',  ( 27.75000000000000355, 14.30000000000000426, 0.000000000000000000 ) ) ;
#112 =( LENGTH_UNIT ( ) NAMED_UNIT ( * ) SI_UNIT ( .MILLI., .METRE. ) );
#113 = ADVANCED_BREP_SHAPE_REPRESENTATION ( '76.04.06.0009', ( #82, #109 ), #291 ) ;
#114 = ORIENTED_EDGE ( 'NONE', *, *, #31, .F. ) ;
#115 = VERTEX_POINT ( 'NONE', #225 ) ;
#116 = ADVANCED_FACE ( 'NONE', ( #52, #236 ), #96, .T. ) ;
#117 = AXIS2_PLACEMENT_3D ( 'NONE', #108, #289, #220 ) ;
#118 = FACE_OUTER_BOUND ( 'NONE', #38, .T. ) ;
#119 = DIRECTION ( 'NONE',  ( -1.000000000000000000, -0.000000000000000000, -0.000000000000000000 ) ) ;
#120 = CARTESIAN_POINT ( 'NONE',  ( -31.50000000000000000, 0.000000000000000000, 14.99999999999999289 ) ) ;
#121 = DIRECTION ( 'NONE',  ( 0.000000000000000000, 0.000000000000000000, 1.000000000000000000 ) ) ;
#122 = DIRECTION ( 'NONE',  ( 1.000000000000000000, 0.000000000000000000, 0.000000000000000000 ) ) ;
#123 = COLOUR_RGB ( '',0.8274509803921568096, 0.8392156862745098200, 0.8274509803921568096 ) ;
#124 = FACE_OUTER_BOUND ( 'NONE', #214, .T. ) ;
#125 = CIRCLE ( 'NONE', #208, 14.99999999999999467 ) ;
#126 = EDGE_LOOP ( 'NONE', ( #57 ) ) ;
#127 = DIRECTION ( 'NONE',  ( 0.000000000000000000, 0.000000000000000000, 1.000000000000000000 ) ) ;
#128 = AXIS2_PLACEMENT_3D ( 'NONE', #189, #22, #252 ) ;
#129 = FACE_OUTER_BOUND ( 'NONE', #85, .T. ) ;
#130 = DIRECTION ( 'NONE',  ( -1.000000000000000000, 0.000000000000000000, -0.000000000000000000 ) ) ;
#131 = AXIS2_PLACEMENT_3D ( 'NONE', #230, #144, #184 ) ;
#132 = VERTEX_POINT ( 'NONE', #134 ) ;
#133 = ADVANCED_FACE ( 'NONE', ( #135, #17 ), #231, .T. ) ;
#134 = CARTESIAN_POINT ( 'NONE',  ( 27.74999999999999645, 0.000000000000000000, 14.30000000000000426 ) ) ;
#135 = FACE_BOUND ( 'NONE', #234, .T. ) ;
#136 = ORIENTED_EDGE ( 'NONE', *, *, #176, .T. ) ;
#137 = DIRECTION ( 'NONE',  ( -1.000000000000000000, -0.000000000000000000, -0.000000000000000000 ) ) ;
#138 = CIRCLE ( 'NONE', #50, 14.30000000000000782 ) ;
#139 = CLOSED_SHELL ( 'NONE', ( #95, #158, #116, #97, #3, #199, #64, #264, #14, #73, #60, #133, #288 ) ) ;
#140 = ORIENTED_EDGE ( 'NONE', *, *, #176, .F. ) ;
#141 = UNCERTAINTY_MEASURE_WITH_UNIT (LENGTH_MEASURE( 1.000000000000000082E-05 ), #5, 'distance_accuracy_value', 'NONE');
#142 = CARTESIAN_POINT ( 'NONE',  ( 29.35000000000000142, 0.000000000000000000, 0.000000000000000000 ) ) ;
#143 = ORIENTED_EDGE ( 'NONE', *, *, #42, .F. ) ;
#144 = DIRECTION ( 'NONE',  ( -1.000000000000000000, -0.000000000000000000, -0.000000000000000000 ) ) ;
#145 = ORIENTED_EDGE ( 'NONE', *, *, #179, .F. ) ;
#146 = CARTESIAN_POINT ( 'NONE',  ( 0.000000000000000000, 0.000000000000000000, 0.000000000000000000 ) ) ;
#147 = CYLINDRICAL_SURFACE ( 'NONE', #68, 14.29999999999999893 ) ;
#148 = DIRECTION ( 'NONE',  ( -1.000000000000000000, 0.000000000000000000, -0.000000000000000000 ) ) ;
#149 = SURFACE_STYLE_FILL_AREA ( #196 ) ;
#150 = AXIS2_PLACEMENT_3D ( 'NONE', #222, #130, #265 ) ;
#151 = APPLICATION_CONTEXT ( 'automotive_design' ) ;
#152 = EDGE_LOOP ( 'NONE', ( #217 ) ) ;
#153 = EDGE_LOOP ( 'NONE', ( #140 ) ) ;
#154 = AXIS2_PLACEMENT_3D ( 'NONE', #283, #165, #75 ) ;
#155 = PRODUCT_RELATED_PRODUCT_CATEGORY ( 'part', '', ( #226 ) ) ;
#156 = CARTESIAN_POINT ( 'NONE',  ( -27.75000000000000355, 14.99999999999999645, 0.000000000000000000 ) ) ;
#157 = PRESENTATION_LAYER_ASSIGNMENT (  '', '', ( #221 ) ) ;
#158 = ADVANCED_FACE ( 'NONE', ( #213, #277 ), #258, .T. ) ;
#159 = CARTESIAN_POINT ( 'NONE',  ( -32.50000000000000000, 14.42264973081036317, 0.000000000000000000 ) ) ;
#160 = DIRECTION ( 'NONE',  ( 0.000000000000000000, 0.000000000000000000, -1.000000000000000000 ) ) ;
#161 = CARTESIAN_POINT ( 'NONE',  ( -31.50000000000000000, 0.000000000000000000, 0.000000000000000000 ) ) ;
#162 = CIRCLE ( 'NONE', #246, 15.00000000000000355 ) ;
#163 = VERTEX_POINT ( 'NONE', #292 ) ;
#164 = APPLICATION_PROTOCOL_DEFINITION ( 'draft international standard', 'automotive_design', 1998, #151 ) ;
#165 = DIRECTION ( 'NONE',  ( -1.000000000000000000, -0.000000000000000000, -0.000000000000000000 ) ) ;
#166 = ORIENTED_EDGE ( 'NONE', *, *, #56, .T. ) ;
#167 = AXIS2_PLACEMENT_3D ( 'NONE', #161, #74, #26 ) ;
#168 = FACE_OUTER_BOUND ( 'NONE', #126, .T. ) ;
#169 = EDGE_LOOP ( 'NONE', ( #299 ) ) ;
#170 = APPLICATION_CONTEXT ( 'automotive_design' ) ;
#171 = CARTESIAN_POINT ( 'NONE',  ( -27.75000000000000355, 0.000000000000000000, 0.000000000000000000 ) ) ;
#172 = PLANE ( 'NONE',  #105 ) ;
#173 = SHAPE_DEFINITION_REPRESENTATION ( #92, #113 ) ;
#174 = AXIS2_PLACEMENT_3D ( 'NONE', #23, #119, #53 ) ;
#175 = SURFACE_SIDE_STYLE ('',( #149 ) ) ;
#176 = EDGE_CURVE ( 'NONE', #163, #163, #66, .T. ) ;
#177 = AXIS2_PLACEMENT_3D ( 'NONE', #171, #253, #121 ) ;
#178 = CARTESIAN_POINT ( 'NONE',  ( -32.50000000000000000, 0.000000000000000000, 0.000000000000000000 ) ) ;
#179 = EDGE_CURVE ( 'NONE', #21, #21, #162, .T. ) ;
#180 = CARTESIAN_POINT ( 'NONE',  ( 31.50000000000000000, 0.000000000000000000, 15.00000000000000178 ) ) ;
#181 = DIRECTION ( 'NONE',  ( 1.000000000000000000, 0.000000000000000000, 0.000000000000000000 ) ) ;
#182 = FILL_AREA_STYLE_COLOUR ( '', #123 ) ;
#183 = ORIENTED_EDGE ( 'NONE', *, *, #237, .F. ) ;
#184 = DIRECTION ( 'NONE',  ( 0.000000000000000000, 0.000000000000000000, 1.000000000000000000 ) ) ;
#185 = DIRECTION ( 'NONE',  ( -1.000000000000000000, -0.000000000000000000, -0.000000000000000000 ) ) ;
#186 = CARTESIAN_POINT ( 'NONE',  ( 29.35000000000000142, 0.000000000000000000, 15.00000000000000000 ) ) ;
#187 = EDGE_LOOP ( 'NONE', ( #261 ) ) ;
#188 = VERTEX_POINT ( 'NONE', #120 ) ;
#189 = CARTESIAN_POINT ( 'NONE',  ( 32.50000000000000000, 0.000000000000000000, 0.000000000000000000 ) ) ;
#190 = AXIS2_PLACEMENT_3D ( 'NONE', #39, #281, #28 ) ;
#191 = DIRECTION ( 'NONE',  ( 0.000000000000000000, 0.000000000000000000, 1.000000000000000000 ) ) ;
#192 = ORIENTED_EDGE ( 'NONE', *, *, #179, .T. ) ;
#193 = ORIENTED_EDGE ( 'NONE', *, *, #273, .T. ) ;
#194 = UNCERTAINTY_MEASURE_WITH_UNIT (LENGTH_MEASURE( 1.000000000000000082E-05 ), #112, 'distance_accuracy_value', 'NONE');
#195 = FACE_OUTER_BOUND ( 'NONE', #262, .T. ) ;
#196 = FILL_AREA_STYLE ('',( #81 ) ) ;
#197 =( GEOMETRIC_REPRESENTATION_CONTEXT ( 3 ) GLOBAL_UNCERTAINTY_ASSIGNED_CONTEXT ( ( #141 ) ) GLOBAL_UNIT_ASSIGNED_CONTEXT ( ( #5, #267, #287 ) ) REPRESENTATION_CONTEXT ( 'NONE', 'WORKASPACE' ) );
#198 = ORIENTED_EDGE ( 'NONE', *, *, #243, .T. ) ;
#199 = ADVANCED_FACE ( 'NONE', ( #88, #271 ), #249, .F. ) ;
#200 = AXIS2_PLACEMENT_3D ( 'NONE', #78, #137, #67 ) ;
#201 = COLOUR_RGB ( '',0.8274509803921568096, 0.8392156862745098200, 0.8274509803921568096 ) ;
#202 = CARTESIAN_POINT ( 'NONE',  ( -29.35000000000000142, 0.000000000000000000, 14.30000000000000071 ) ) ;
#203 =( NAMED_UNIT ( * ) PLANE_ANGLE_UNIT ( ) SI_UNIT ( $, .RADIAN. ) );
#204 = CARTESIAN_POINT ( 'NONE',  ( 29.35000000000000142, 15.00000000000000000, 0.000000000000000000 ) ) ;
#205 = CARTESIAN_POINT ( 'NONE',  ( -32.50000000000000000, 0.000000000000000000, 14.42264973081036317 ) ) ;
#206 = ORIENTED_EDGE ( 'NONE', *, *, #254, .T. ) ;
#207 = CIRCLE ( 'NONE', #131, 15.00000000000000178 ) ;
#208 = AXIS2_PLACEMENT_3D ( 'NONE', #297, #77, #191 ) ;
#209 = CYLINDRICAL_SURFACE ( 'NONE', #290, 14.99999999999999289 ) ;
#210 = VERTEX_POINT ( 'NONE', #296 ) ;
#211 = PRODUCT_DEFINITION ( 'UNKNOWN', '', #76, #274 ) ;
#212 = ORIENTED_EDGE ( 'NONE', *, *, #254, .F. ) ;
#213 = FACE_OUTER_BOUND ( 'NONE', #187, .T. ) ;
#214 = EDGE_LOOP ( 'NONE', ( #114 ) ) ;
#215 =( NAMED_UNIT ( * ) PLANE_ANGLE_UNIT ( ) SI_UNIT ( $, .RADIAN. ) );
#216 = CARTESIAN_POINT ( 'NONE',  ( -27.75000000000000000, 0.000000000000000000, 0.000000000000000000 ) ) ;
#217 = ORIENTED_EDGE ( 'NONE', *, *, #13, .F. ) ;
#218 = EDGE_LOOP ( 'NONE', ( #259 ) ) ;
#219 = UNCERTAINTY_MEASURE_WITH_UNIT (LENGTH_MEASURE( 1.000000000000000082E-05 ), #35, 'distance_accuracy_value', 'NONE');
#220 = DIRECTION ( 'NONE',  ( 0.000000000000000000, 0.000000000000000000, 1.000000000000000000 ) ) ;
#221 = STYLED_ITEM ( 'NONE', ( #33 ), #82 ) ;
#222 = CARTESIAN_POINT ( 'NONE',  ( -29.35000000000000142, 14.30000000000000071, 0.000000000000000000 ) ) ;
#223 = CARTESIAN_POINT ( 'NONE',  ( 27.74999999999999645, 0.000000000000000000, 0.000000000000000000 ) ) ;
#224 = CIRCLE ( 'NONE', #177, 14.99999999999999645 ) ;
#225 = CARTESIAN_POINT ( 'NONE',  ( 32.50000000000000000, 0.000000000000000000, 14.42264973081036317 ) ) ;
#226 = PRODUCT ( '76.04.06.0009', '76.04.06.0009', '', ( #72 ) ) ;
#227 = APPLICATION_PROTOCOL_DEFINITION ( 'draft international standard', 'automotive_design', 1998, #170 ) ;
#228 = VERTEX_POINT ( 'NONE', #46 ) ;
#229 = FACE_OUTER_BOUND ( 'NONE', #152, .T. ) ;
#230 = CARTESIAN_POINT ( 'NONE',  ( 31.50000000000000000, 0.000000000000000000, 0.000000000000000000 ) ) ;
#231 = CONICAL_SURFACE ( 'NONE', #270, 14.99999999999999289, 0.5235987755983014802 ) ;
#232 = EDGE_LOOP ( 'NONE', ( #206 ) ) ;
#233 = FACE_OUTER_BOUND ( 'NONE', #169, .T. ) ;
#234 = EDGE_LOOP ( 'NONE', ( #183 ) ) ;
#235 = DIRECTION ( 'NONE',  ( 0.000000000000000000, 0.000000000000000000, -1.000000000000000000 ) ) ;
#236 = FACE_OUTER_BOUND ( 'NONE', #100, .T. ) ;
#237 = EDGE_CURVE ( 'NONE', #15, #15, #34, .T. ) ;
#238 = DIRECTION ( 'NONE',  ( 0.000000000000000000, 0.000000000000000000, 1.000000000000000000 ) ) ;
#239 = MECHANICAL_DESIGN_GEOMETRIC_PRESENTATION_REPRESENTATION (  '', ( #221 ), #197 ) ;
#240 = EDGE_LOOP ( 'NONE', ( #54 ) ) ;
#241 = DIRECTION ( 'NONE',  ( -0.000000000000000000, 0.000000000000000000, 1.000000000000000000 ) ) ;
#242 = EDGE_LOOP ( 'NONE', ( #45 ) ) ;
#243 = EDGE_CURVE ( 'NONE', #210, #210, #138, .T. ) ;
#244 = DIRECTION ( 'NONE',  ( 0.000000000000000000, 0.000000000000000000, -1.000000000000000000 ) ) ;
#245 = MECHANICAL_DESIGN_GEOMETRIC_PRESENTATION_REPRESENTATION (  '', ( #298 ), #110 ) ;
#246 = AXIS2_PLACEMENT_3D ( 'NONE', #65, #248, #10 ) ;
#247 = CIRCLE ( 'NONE', #167, 14.99999999999999289 ) ;
#248 = DIRECTION ( 'NONE',  ( -1.000000000000000000, -0.000000000000000000, -0.000000000000000000 ) ) ;
#249 = PLANE ( 'NONE',  #269 ) ;
#250 = VERTEX_POINT ( 'NONE', #202 ) ;
#251 = VERTEX_POINT ( 'NONE', #43 ) ;
#252 = DIRECTION ( 'NONE',  ( 0.000000000000000000, 0.000000000000000000, 1.000000000000000000 ) ) ;
#253 = DIRECTION ( 'NONE',  ( -1.000000000000000000, -0.000000000000000000, -0.000000000000000000 ) ) ;
#254 = EDGE_CURVE ( 'NONE', #99, #99, #102, .T. ) ;
#255 = FILL_AREA_STYLE ('',( #182 ) ) ;
#256 = ORIENTED_EDGE ( 'NONE', *, *, #31, .T. ) ;
#257 = DIRECTION ( 'NONE',  ( -1.000000000000000000, -0.000000000000000000, -0.000000000000000000 ) ) ;
#258 = CONICAL_SURFACE ( 'NONE', #128, 14.42264973081036317, 0.5235987755983079195 ) ;
#259 = ORIENTED_EDGE ( 'NONE', *, *, #86, .T. ) ;
#260 = FACE_OUTER_BOUND ( 'NONE', #29, .T. ) ;
#261 = ORIENTED_EDGE ( 'NONE', *, *, #273, .F. ) ;
#262 = EDGE_LOOP ( 'NONE', ( #143 ) ) ;
#263 = SURFACE_STYLE_USAGE ( .BOTH. , #175 ) ;
#264 = ADVANCED_FACE ( 'NONE', ( #275, #260 ), #69, .F. ) ;
#265 = DIRECTION ( 'NONE',  ( -0.000000000000000000, 0.000000000000000000, 1.000000000000000000 ) ) ;
#266 = PRESENTATION_STYLE_ASSIGNMENT (( #49 ) ) ;
#267 =( NAMED_UNIT ( * ) PLANE_ANGLE_UNIT ( ) SI_UNIT ( $, .RADIAN. ) );
#268 = AXIS2_PLACEMENT_3D ( 'NONE', #216, #300, #44 ) ;
#269 = AXIS2_PLACEMENT_3D ( 'NONE', #111, #90, #41 ) ;
#270 = AXIS2_PLACEMENT_3D ( 'NONE', #25, #122, #160 ) ;
#271 = FACE_BOUND ( 'NONE', #218, .T. ) ;
#272 = SURFACE_STYLE_FILL_AREA ( #255 ) ;
#273 = EDGE_CURVE ( 'NONE', #279, #279, #207, .T. ) ;
#274 = PRODUCT_DEFINITION_CONTEXT ( 'detailed design', #151, 'design' ) ;
#275 = FACE_BOUND ( 'NONE', #153, .T. ) ;
#276 =( NAMED_UNIT ( * ) SI_UNIT ( $, .STERADIAN. ) SOLID_ANGLE_UNIT ( ) );
#277 = FACE_BOUND ( 'NONE', #240, .T. ) ;
#278 = EDGE_LOOP ( 'NONE', ( #192 ) ) ;
#279 = VERTEX_POINT ( 'NONE', #180 ) ;
#280 = CYLINDRICAL_SURFACE ( 'NONE', #174, 14.30000000000000604 ) ;
#281 = DIRECTION ( 'NONE',  ( -1.000000000000000000, -0.000000000000000000, -0.000000000000000000 ) ) ;
#282 = ORIENTED_EDGE ( 'NONE', *, *, #56, .F. ) ;
#283 = CARTESIAN_POINT ( 'NONE',  ( -32.50000000000000000, 0.000000000000000000, 0.000000000000000000 ) ) ;
#284 = FACE_OUTER_BOUND ( 'NONE', #294, .T. ) ;
#285 = FACE_OUTER_BOUND ( 'NONE', #2, .T. ) ;
#286 = CYLINDRICAL_SURFACE ( 'NONE', #117, 15.00000000000000000 ) ;
#287 =( NAMED_UNIT ( * ) SI_UNIT ( $, .STERADIAN. ) SOLID_ANGLE_UNIT ( ) );
#288 = ADVANCED_FACE ( 'NONE', ( #233 ), #24, .F. ) ;
#289 = DIRECTION ( 'NONE',  ( -1.000000000000000000, -0.000000000000000000, -0.000000000000000000 ) ) ;
#290 = AXIS2_PLACEMENT_3D ( 'NONE', #295, #37, #6 ) ;
#291 =( GEOMETRIC_REPRESENTATION_CONTEXT ( 3 ) GLOBAL_UNCERTAINTY_ASSIGNED_CONTEXT ( ( #194 ) ) GLOBAL_UNIT_ASSIGNED_CONTEXT ( ( #112, #203, #276 ) ) REPRESENTATION_CONTEXT ( 'NONE', 'WORKASPACE' ) );
#292 = CARTESIAN_POINT ( 'NONE',  ( -27.75000000000000000, 0.000000000000000000, 14.29999999999999716 ) ) ;
#293 = CARTESIAN_POINT ( 'NONE',  ( 27.75000000000000355, 0.000000000000000000, 15.00000000000000355 ) ) ;
#294 = EDGE_LOOP ( 'NONE', ( #136 ) ) ;
#295 = CARTESIAN_POINT ( 'NONE',  ( -32.50000000000000000, 0.000000000000000000, 0.000000000000000000 ) ) ;
#296 = CARTESIAN_POINT ( 'NONE',  ( 29.35000000000000142, 0.000000000000000000, 14.30000000000000782 ) ) ;
#297 = CARTESIAN_POINT ( 'NONE',  ( -29.35000000000000142, 0.000000000000000000, 0.000000000000000000 ) ) ;
#298 = STYLED_ITEM ( 'NONE', ( #266 ), #113 ) ;
#299 = ORIENTED_EDGE ( 'NONE', *, *, #237, .T. ) ;
#300 = DIRECTION ( 'NONE',  ( -1.000000000000000000, -0.000000000000000000, -0.000000000000000000 ) ) ;
ENDSEC;
END-ISO-10303-21;
