ISO-10303-21;
HEADER;
FILE_DESCRIPTION (( 'STEP AP214' ),
    '1' );
FILE_NAME ('76.04.06.0007.step',
    '2021-04-02T18:04:33',
    ( '' ),
    ( '' ),
    'SwSTEP 2.0',
    'SolidWorks 2021',
    '' );
FILE_SCHEMA (( 'AUTOMOTIVE_DESIGN' ));
ENDSEC;

DATA;
#1 = DIRECTION ( 'NONE',  ( 0.000000000000000000, 0.000000000000000000, 1.000000000000000000 ) ) ;
#2 = DIRECTION ( 'NONE',  ( 0.000000000000000000, 0.000000000000000000, 1.000000000000000000 ) ) ;
#3 = EDGE_LOOP ( 'NONE', ( #231 ) ) ;
#4 = EDGE_LOOP ( 'NONE', ( #278 ) ) ;
#5 = AXIS2_PLACEMENT_3D ( 'NONE', #93, #238, #169 ) ;
#6 = DIRECTION ( 'NONE',  ( -1.000000000000000000, -0.000000000000000000, -0.000000000000000000 ) ) ;
#7 = VERTEX_POINT ( 'NONE', #118 ) ;
#8 = ORIENTED_EDGE ( 'NONE', *, *, #211, .F. ) ;
#9 = CARTESIAN_POINT ( 'NONE',  ( -21.55000000000000426, 0.000000000000000000, 9.499999999999996447 ) ) ;
#10 = AXIS2_PLACEMENT_3D ( 'NONE', #90, #266, #251 ) ;
#11 = DIRECTION ( 'NONE',  ( -1.000000000000000000, -0.000000000000000000, -0.000000000000000000 ) ) ;
#12 = CARTESIAN_POINT ( 'NONE',  ( -24.00000000000000000, 9.422649730810364943, 0.000000000000000000 ) ) ;
#13 = PLANE ( 'NONE',  #205 ) ;
#14 = CARTESIAN_POINT ( 'NONE',  ( 23.00000000000000000, 0.000000000000000000, 0.000000000000000000 ) ) ;
#15 = CIRCLE ( 'NONE', #112, 9.500000000000001776 ) ;
#16 = EDGE_CURVE ( 'NONE', #212, #212, #241, .T. ) ;
#17 = DIRECTION ( 'NONE',  ( 0.000000000000000000, 0.000000000000000000, 1.000000000000000000 ) ) ;
#18 = ADVANCED_FACE ( 'NONE', ( #243, #149 ), #46, .T. ) ;
#19 =( NAMED_UNIT ( * ) PLANE_ANGLE_UNIT ( ) SI_UNIT ( $, .RADIAN. ) );
#20 = FACE_OUTER_BOUND ( 'NONE', #299, .T. ) ;
#21 =( GEOMETRIC_REPRESENTATION_CONTEXT ( 3 ) GLOBAL_UNCERTAINTY_ASSIGNED_CONTEXT ( ( #209 ) ) GLOBAL_UNIT_ASSIGNED_CONTEXT ( ( #180, #181, #225 ) ) REPRESENTATION_CONTEXT ( 'NONE', 'WORKASPACE' ) );
#22 = APPLICATION_PROTOCOL_DEFINITION ( 'draft international standard', 'automotive_design', 1998, #239 ) ;
#23 = PLANE ( 'NONE',  #242 ) ;
#24 = SHAPE_DEFINITION_REPRESENTATION ( #244, #130 ) ;
#25 = PRODUCT_CONTEXT ( 'NONE', #239, 'mechanical' ) ;
#26 = DIRECTION ( 'NONE',  ( 0.000000000000000000, 0.000000000000000000, -1.000000000000000000 ) ) ;
#27 = EDGE_LOOP ( 'NONE', ( #191 ) ) ;
#28 = FILL_AREA_STYLE_COLOUR ( '', #139 ) ;
#29 = SURFACE_STYLE_FILL_AREA ( #230 ) ;
#30 = DIRECTION ( 'NONE',  ( -1.000000000000000000, -0.000000000000000000, -0.000000000000000000 ) ) ;
#31 = ORIENTED_EDGE ( 'NONE', *, *, #45, .T. ) ;
#32 = ORIENTED_EDGE ( 'NONE', *, *, #177, .T. ) ;
#33 = DIRECTION ( 'NONE',  ( 0.000000000000000000, 0.000000000000000000, 1.000000000000000000 ) ) ;
#34 = ORIENTED_EDGE ( 'NONE', *, *, #226, .F. ) ;
#35 = CONICAL_SURFACE ( 'NONE', #51, 9.422649730810364943, 0.5235987755983066982 ) ;
#36 = CARTESIAN_POINT ( 'NONE',  ( -24.00000000000000000, 0.000000000000000000, 0.000000000000000000 ) ) ;
#37 = CARTESIAN_POINT ( 'NONE',  ( 24.00000000000000000, 0.000000000000000000, 0.000000000000000000 ) ) ;
#38 = DIRECTION ( 'NONE',  ( 0.000000000000000000, 0.000000000000000000, -1.000000000000000000 ) ) ;
#39 = DIRECTION ( 'NONE',  ( -1.000000000000000000, -0.000000000000000000, -0.000000000000000000 ) ) ;
#40 = VERTEX_POINT ( 'NONE', #125 ) ;
#41 = DIRECTION ( 'NONE',  ( 0.000000000000000000, 0.000000000000000000, 1.000000000000000000 ) ) ;
#42 = AXIS2_PLACEMENT_3D ( 'NONE', #36, #283, #103 ) ;
#43 = FACE_OUTER_BOUND ( 'NONE', #207, .T. ) ;
#44 = ADVANCED_FACE ( 'NONE', ( #171, #127 ), #294, .F. ) ;
#45 = EDGE_CURVE ( 'NONE', #144, #144, #300, .T. ) ;
#46 = CONICAL_SURFACE ( 'NONE', #220, 9.999999999999996447, 0.5235987755983012581 ) ;
#47 = ADVANCED_FACE ( 'NONE', ( #94 ), #13, .F. ) ;
#48 = DIRECTION ( 'NONE',  ( 0.000000000000000000, 0.000000000000000000, 1.000000000000000000 ) ) ;
#49 = DIRECTION ( 'NONE',  ( -1.000000000000000000, 0.000000000000000000, -0.000000000000000000 ) ) ;
#50 = CARTESIAN_POINT ( 'NONE',  ( 20.25000000000000355, 9.500000000000003553, 0.000000000000000000 ) ) ;
#51 = AXIS2_PLACEMENT_3D ( 'NONE', #106, #284, #41 ) ;
#52 = DIRECTION ( 'NONE',  ( 0.000000000000000000, 0.000000000000000000, 1.000000000000000000 ) ) ;
#53 = ADVANCED_FACE ( 'NONE', ( #88, #216 ), #237, .F. ) ;
#54 = DIRECTION ( 'NONE',  ( -1.000000000000000000, -0.000000000000000000, -0.000000000000000000 ) ) ;
#55 = ORIENTED_EDGE ( 'NONE', *, *, #163, .F. ) ;
#56 = FACE_OUTER_BOUND ( 'NONE', #145, .T. ) ;
#57 = CARTESIAN_POINT ( 'NONE',  ( -24.00000000000000000, 0.000000000000000000, 0.000000000000000000 ) ) ;
#58 = ORIENTED_EDGE ( 'NONE', *, *, #126, .F. ) ;
#59 = AXIS2_PLACEMENT_3D ( 'NONE', #298, #161, #160 ) ;
#60 = CYLINDRICAL_SURFACE ( 'NONE', #42, 9.999999999999998224 ) ;
#61 = ORIENTED_EDGE ( 'NONE', *, *, #16, .F. ) ;
#62 = VERTEX_POINT ( 'NONE', #286 ) ;
#63 = DIRECTION ( 'NONE',  ( 0.000000000000000000, 0.000000000000000000, 1.000000000000000000 ) ) ;
#64 = ORIENTED_EDGE ( 'NONE', *, *, #163, .T. ) ;
#65 = CIRCLE ( 'NONE', #224, 9.422649730810364943 ) ;
#66 = DIRECTION ( 'NONE',  ( -1.000000000000000000, -0.000000000000000000, -0.000000000000000000 ) ) ;
#67 = CIRCLE ( 'NONE', #259, 9.999999999999996447 ) ;
#68 = EDGE_CURVE ( 'NONE', #165, #165, #84, .T. ) ;
#69 = DIRECTION ( 'NONE',  ( 0.000000000000000000, 0.000000000000000000, 1.000000000000000000 ) ) ;
#70 = FACE_OUTER_BOUND ( 'NONE', #253, .T. ) ;
#71 = SURFACE_STYLE_USAGE ( .BOTH. , #182 ) ;
#72 = FACE_OUTER_BOUND ( 'NONE', #27, .T. ) ;
#73 = AXIS2_PLACEMENT_3D ( 'NONE', #248, #54, #222 ) ;
#74 = ADVANCED_FACE ( 'NONE', ( #215, #151 ), #35, .T. ) ;
#75 = CARTESIAN_POINT ( 'NONE',  ( -20.25000000000000355, 9.999999999999996447, 0.000000000000000000 ) ) ;
#76 = DIRECTION ( 'NONE',  ( 0.000000000000000000, 0.000000000000000000, 1.000000000000000000 ) ) ;
#77 = EDGE_LOOP ( 'NONE', ( #8 ) ) ;
#78 = VERTEX_POINT ( 'NONE', #232 ) ;
#79 = CARTESIAN_POINT ( 'NONE',  ( 21.55000000000000071, 0.000000000000000000, 10.00000000000000178 ) ) ;
#80 = ORIENTED_EDGE ( 'NONE', *, *, #156, .F. ) ;
#81 = FACE_OUTER_BOUND ( 'NONE', #143, .T. ) ;
#82 =( GEOMETRIC_REPRESENTATION_CONTEXT ( 3 ) GLOBAL_UNCERTAINTY_ASSIGNED_CONTEXT ( ( #135 ) ) GLOBAL_UNIT_ASSIGNED_CONTEXT ( ( #273, #19, #175 ) ) REPRESENTATION_CONTEXT ( 'NONE', 'WORKASPACE' ) );
#83 = FACE_OUTER_BOUND ( 'NONE', #77, .T. ) ;
#84 = CIRCLE ( 'NONE', #245, 10.00000000000000178 ) ;
#85 = CARTESIAN_POINT ( 'NONE',  ( -24.00000000000000000, 0.000000000000000000, 9.422649730810364943 ) ) ;
#86 = EDGE_LOOP ( 'NONE', ( #141 ) ) ;
#87 = ADVANCED_FACE ( 'NONE', ( #83, #43 ), #108, .T. ) ;
#88 = FACE_OUTER_BOUND ( 'NONE', #281, .T. ) ;
#89 = ADVANCED_FACE ( 'NONE', ( #128, #109 ), #198, .T. ) ;
#90 = CARTESIAN_POINT ( 'NONE',  ( 0.000000000000000000, 0.000000000000000000, 0.000000000000000000 ) ) ;
#91 =( LENGTH_UNIT ( ) NAMED_UNIT ( * ) SI_UNIT ( .MILLI., .METRE. ) );
#92 =( NAMED_UNIT ( * ) PLANE_ANGLE_UNIT ( ) SI_UNIT ( $, .RADIAN. ) );
#93 = CARTESIAN_POINT ( 'NONE',  ( 21.55000000000000071, 10.00000000000000178, 0.000000000000000000 ) ) ;
#94 = FACE_OUTER_BOUND ( 'NONE', #228, .T. ) ;
#95 = PRODUCT_DEFINITION ( 'UNKNOWN', '', #234, #147 ) ;
#96 = CARTESIAN_POINT ( 'NONE',  ( -24.00000000000000000, 0.000000000000000000, 0.000000000000000000 ) ) ;
#97 = ADVANCED_FACE ( 'NONE', ( #111, #184 ), #297, .F. ) ;
#98 = DIRECTION ( 'NONE',  ( -1.000000000000000000, -0.000000000000000000, -0.000000000000000000 ) ) ;
#99 = CIRCLE ( 'NONE', #194, 9.500000000000003553 ) ;
#100 = CARTESIAN_POINT ( 'NONE',  ( -20.25000000000000000, 0.000000000000000000, 0.000000000000000000 ) ) ;
#101 = CARTESIAN_POINT ( 'NONE',  ( 20.25000000000000355, 0.000000000000000000, 0.000000000000000000 ) ) ;
#102 = MECHANICAL_DESIGN_GEOMETRIC_PRESENTATION_REPRESENTATION (  '', ( #201 ), #82 ) ;
#103 = DIRECTION ( 'NONE',  ( 0.000000000000000000, 0.000000000000000000, 1.000000000000000000 ) ) ;
#104 = CIRCLE ( 'NONE', #134, 9.999999999999996447 ) ;
#105 = EDGE_LOOP ( 'NONE', ( #55 ) ) ;
#106 = CARTESIAN_POINT ( 'NONE',  ( 24.00000000000000000, 0.000000000000000000, 0.000000000000000000 ) ) ;
#107 = EDGE_LOOP ( 'NONE', ( #282 ) ) ;
#108 = CYLINDRICAL_SURFACE ( 'NONE', #190, 9.500000000000001776 ) ;
#109 = FACE_OUTER_BOUND ( 'NONE', #157, .T. ) ;
#110 = CIRCLE ( 'NONE', #183, 9.999999999999996447 ) ;
#111 = FACE_BOUND ( 'NONE', #268, .T. ) ;
#112 = AXIS2_PLACEMENT_3D ( 'NONE', #252, #98, #52 ) ;
#113 = DIRECTION ( 'NONE',  ( -1.000000000000000000, -0.000000000000000000, -0.000000000000000000 ) ) ;
#114 = CARTESIAN_POINT ( 'NONE',  ( 20.24999999999999645, 0.000000000000000000, 0.000000000000000000 ) ) ;
#115 = PRESENTATION_LAYER_ASSIGNMENT (  '', '', ( #201 ) ) ;
#116 = CARTESIAN_POINT ( 'NONE',  ( 24.00000000000000000, 0.000000000000000000, 0.000000000000000000 ) ) ;
#117 = ADVANCED_FACE ( 'NONE', ( #20, #202 ), #23, .F. ) ;
#118 = CARTESIAN_POINT ( 'NONE',  ( 20.24999999999999645, 0.000000000000000000, 10.00000000000000178 ) ) ;
#119 = ORIENTED_EDGE ( 'NONE', *, *, #68, .T. ) ;
#120 = MECHANICAL_DESIGN_GEOMETRIC_PRESENTATION_REPRESENTATION (  '', ( #293 ), #21 ) ;
#121 = EDGE_LOOP ( 'NONE', ( #31 ) ) ;
#122 = CARTESIAN_POINT ( 'NONE',  ( -21.55000000000000071, 9.499999999999996447, 0.000000000000000000 ) ) ;
#123 = VERTEX_POINT ( 'NONE', #9 ) ;
#124 = EDGE_LOOP ( 'NONE', ( #290 ) ) ;
#125 = CARTESIAN_POINT ( 'NONE',  ( 20.25000000000000355, 0.000000000000000000, 9.500000000000003553 ) ) ;
#126 = EDGE_CURVE ( 'NONE', #7, #7, #168, .T. ) ;
#127 = FACE_OUTER_BOUND ( 'NONE', #185, .T. ) ;
#128 = FACE_OUTER_BOUND ( 'NONE', #218, .T. ) ;
#129 = AXIS2_PLACEMENT_3D ( 'NONE', #12, #214, #38 ) ;
#130 = ADVANCED_BREP_SHAPE_REPRESENTATION ( '76.04.06.0007', ( #176, #10 ), #223 ) ;
#131 = DIRECTION ( 'NONE',  ( 0.000000000000000000, 0.000000000000000000, 1.000000000000000000 ) ) ;
#132 = EDGE_CURVE ( 'NONE', #123, #123, #199, .T. ) ;
#133 = DIRECTION ( 'NONE',  ( -0.000000000000000000, 0.000000000000000000, 1.000000000000000000 ) ) ;
#134 = AXIS2_PLACEMENT_3D ( 'NONE', #164, #30, #272 ) ;
#135 = UNCERTAINTY_MEASURE_WITH_UNIT (LENGTH_MEASURE( 1.000000000000000082E-05 ), #273, 'distance_accuracy_value', 'NONE');
#136 = FACE_OUTER_BOUND ( 'NONE', #121, .T. ) ;
#137 = DIRECTION ( 'NONE',  ( -1.000000000000000000, -0.000000000000000000, -0.000000000000000000 ) ) ;
#138 = ORIENTED_EDGE ( 'NONE', *, *, #132, .F. ) ;
#139 = COLOUR_RGB ( '',0.8274509803921568096, 0.8392156862745098200, 0.8274509803921568096 ) ;
#140 = SURFACE_STYLE_USAGE ( .BOTH. , #250 ) ;
#141 = ORIENTED_EDGE ( 'NONE', *, *, #197, .T. ) ;
#142 = VERTEX_POINT ( 'NONE', #85 ) ;
#143 = EDGE_LOOP ( 'NONE', ( #138 ) ) ;
#144 = VERTEX_POINT ( 'NONE', #146 ) ;
#145 = EDGE_LOOP ( 'NONE', ( #64 ) ) ;
#146 = CARTESIAN_POINT ( 'NONE',  ( 23.00000000000000000, 0.000000000000000000, 10.00000000000000178 ) ) ;
#147 = PRODUCT_DEFINITION_CONTEXT ( 'detailed design', #254, 'design' ) ;
#148 = AXIS2_PLACEMENT_3D ( 'NONE', #75, #275, #26 ) ;
#149 = FACE_OUTER_BOUND ( 'NONE', #210, .T. ) ;
#150 = DIRECTION ( 'NONE',  ( -1.000000000000000000, 0.000000000000000000, -0.000000000000000000 ) ) ;
#151 = FACE_BOUND ( 'NONE', #4, .T. ) ;
#152 = AXIS2_PLACEMENT_3D ( 'NONE', #288, #39, #131 ) ;
#153 = ORIENTED_EDGE ( 'NONE', *, *, #45, .F. ) ;
#154 = AXIS2_PLACEMENT_3D ( 'NONE', #114, #204, #76 ) ;
#155 = PRESENTATION_LAYER_ASSIGNMENT (  '', '', ( #293 ) ) ;
#156 = EDGE_CURVE ( 'NONE', #62, #62, #15, .T. ) ;
#157 = EDGE_LOOP ( 'NONE', ( #32 ) ) ;
#158 = CARTESIAN_POINT ( 'NONE',  ( -22.99999999999999645, 0.000000000000000000, 0.000000000000000000 ) ) ;
#159 = PRESENTATION_STYLE_ASSIGNMENT (( #140 ) ) ;
#160 = DIRECTION ( 'NONE',  ( 0.000000000000000000, 0.000000000000000000, 1.000000000000000000 ) ) ;
#161 = DIRECTION ( 'NONE',  ( -1.000000000000000000, -0.000000000000000000, -0.000000000000000000 ) ) ;
#162 = ORIENTED_EDGE ( 'NONE', *, *, #177, .F. ) ;
#163 = EDGE_CURVE ( 'NONE', #142, #142, #249, .T. ) ;
#164 = CARTESIAN_POINT ( 'NONE',  ( -21.55000000000000071, 0.000000000000000000, 0.000000000000000000 ) ) ;
#165 = VERTEX_POINT ( 'NONE', #79 ) ;
#166 = EDGE_LOOP ( 'NONE', ( #256 ) ) ;
#167 = ORIENTED_EDGE ( 'NONE', *, *, #172, .F. ) ;
#168 = CIRCLE ( 'NONE', #154, 10.00000000000000178 ) ;
#169 = DIRECTION ( 'NONE',  ( 0.000000000000000000, 0.000000000000000000, -1.000000000000000000 ) ) ;
#170 = CARTESIAN_POINT ( 'NONE',  ( 24.00000000000000000, 0.000000000000000000, 9.422649730810364943 ) ) ;
#171 = FACE_BOUND ( 'NONE', #195, .T. ) ;
#172 = EDGE_CURVE ( 'NONE', #189, #189, #65, .T. ) ;
#173 = CARTESIAN_POINT ( 'NONE',  ( -24.00000000000000000, 0.000000000000000000, 0.000000000000000000 ) ) ;
#174 = AXIS2_PLACEMENT_3D ( 'NONE', #122, #179, #264 ) ;
#175 =( NAMED_UNIT ( * ) SI_UNIT ( $, .STERADIAN. ) SOLID_ANGLE_UNIT ( ) );
#176 = MANIFOLD_SOLID_BREP ( 'Revolve1', #236 ) ;
#177 = EDGE_CURVE ( 'NONE', #279, #279, #104, .T. ) ;
#178 = DIRECTION ( 'NONE',  ( -1.000000000000000000, -0.000000000000000000, -0.000000000000000000 ) ) ;
#179 = DIRECTION ( 'NONE',  ( -1.000000000000000000, 0.000000000000000000, -0.000000000000000000 ) ) ;
#180 =( LENGTH_UNIT ( ) NAMED_UNIT ( * ) SI_UNIT ( .MILLI., .METRE. ) );
#181 =( NAMED_UNIT ( * ) PLANE_ANGLE_UNIT ( ) SI_UNIT ( $, .RADIAN. ) );
#182 = SURFACE_SIDE_STYLE ('',( #247 ) ) ;
#183 = AXIS2_PLACEMENT_3D ( 'NONE', #100, #186, #255 ) ;
#184 = FACE_OUTER_BOUND ( 'NONE', #86, .T. ) ;
#185 = EDGE_LOOP ( 'NONE', ( #119 ) ) ;
#186 = DIRECTION ( 'NONE',  ( -1.000000000000000000, -0.000000000000000000, -0.000000000000000000 ) ) ;
#187 = DIRECTION ( 'NONE',  ( -1.000000000000000000, -0.000000000000000000, -0.000000000000000000 ) ) ;
#188 = ADVANCED_FACE ( 'NONE', ( #72, #136 ), #227, .T. ) ;
#189 = VERTEX_POINT ( 'NONE', #170 ) ;
#190 = AXIS2_PLACEMENT_3D ( 'NONE', #173, #66, #17 ) ;
#191 = ORIENTED_EDGE ( 'NONE', *, *, #68, .F. ) ;
#192 = PLANE ( 'NONE',  #129 ) ;
#193 = CARTESIAN_POINT ( 'NONE',  ( 21.55000000000000071, 0.000000000000000000, 0.000000000000000000 ) ) ;
#194 = AXIS2_PLACEMENT_3D ( 'NONE', #101, #187, #69 ) ;
#195 = EDGE_LOOP ( 'NONE', ( #80 ) ) ;
#196 = EDGE_LOOP ( 'NONE', ( #153 ) ) ;
#197 = EDGE_CURVE ( 'NONE', #208, #208, #110, .T. ) ;
#198 = CYLINDRICAL_SURFACE ( 'NONE', #213, 9.999999999999996447 ) ;
#199 = CIRCLE ( 'NONE', #59, 9.499999999999996447 ) ;
#200 = ORIENTED_EDGE ( 'NONE', *, *, #156, .T. ) ;
#201 = STYLED_ITEM ( 'NONE', ( #203 ), #130 ) ;
#202 = FACE_BOUND ( 'NONE', #3, .T. ) ;
#203 = PRESENTATION_STYLE_ASSIGNMENT (( #71 ) ) ;
#204 = DIRECTION ( 'NONE',  ( -1.000000000000000000, -0.000000000000000000, -0.000000000000000000 ) ) ;
#205 = AXIS2_PLACEMENT_3D ( 'NONE', #37, #150, #262 ) ;
#206 = DIRECTION ( 'NONE',  ( -1.000000000000000000, -0.000000000000000000, -0.000000000000000000 ) ) ;
#207 = EDGE_LOOP ( 'NONE', ( #200 ) ) ;
#208 = VERTEX_POINT ( 'NONE', #261 ) ;
#209 = UNCERTAINTY_MEASURE_WITH_UNIT (LENGTH_MEASURE( 1.000000000000000082E-05 ), #180, 'distance_accuracy_value', 'NONE');
#210 = EDGE_LOOP ( 'NONE', ( #260 ) ) ;
#211 = EDGE_CURVE ( 'NONE', #40, #40, #99, .T. ) ;
#212 = VERTEX_POINT ( 'NONE', #258 ) ;
#213 = AXIS2_PLACEMENT_3D ( 'NONE', #292, #246, #48 ) ;
#214 = DIRECTION ( 'NONE',  ( 1.000000000000000000, 0.000000000000000000, 0.000000000000000000 ) ) ;
#215 = FACE_OUTER_BOUND ( 'NONE', #196, .T. ) ;
#216 = FACE_BOUND ( 'NONE', #107, .T. ) ;
#217 = FACE_OUTER_BOUND ( 'NONE', #124, .T. ) ;
#218 = EDGE_LOOP ( 'NONE', ( #34 ) ) ;
#219 = CARTESIAN_POINT ( 'NONE',  ( -22.99999999999999645, 0.000000000000000000, 0.000000000000000000 ) ) ;
#220 = AXIS2_PLACEMENT_3D ( 'NONE', #219, #221, #240 ) ;
#221 = DIRECTION ( 'NONE',  ( 1.000000000000000000, 0.000000000000000000, 0.000000000000000000 ) ) ;
#222 = DIRECTION ( 'NONE',  ( 0.000000000000000000, 0.000000000000000000, 1.000000000000000000 ) ) ;
#223 =( GEOMETRIC_REPRESENTATION_CONTEXT ( 3 ) GLOBAL_UNCERTAINTY_ASSIGNED_CONTEXT ( ( #296 ) ) GLOBAL_UNIT_ASSIGNED_CONTEXT ( ( #91, #92, #229 ) ) REPRESENTATION_CONTEXT ( 'NONE', 'WORKASPACE' ) );
#224 = AXIS2_PLACEMENT_3D ( 'NONE', #116, #137, #2 ) ;
#225 =( NAMED_UNIT ( * ) SI_UNIT ( $, .STERADIAN. ) SOLID_ANGLE_UNIT ( ) );
#226 = EDGE_CURVE ( 'NONE', #78, #78, #67, .T. ) ;
#227 = CYLINDRICAL_SURFACE ( 'NONE', #274, 10.00000000000000178 ) ;
#228 = EDGE_LOOP ( 'NONE', ( #167 ) ) ;
#229 =( NAMED_UNIT ( * ) SI_UNIT ( $, .STERADIAN. ) SOLID_ANGLE_UNIT ( ) );
#230 = FILL_AREA_STYLE ('',( #277 ) ) ;
#231 = ORIENTED_EDGE ( 'NONE', *, *, #211, .T. ) ;
#232 = CARTESIAN_POINT ( 'NONE',  ( -22.99999999999999645, 0.000000000000000000, 9.999999999999996447 ) ) ;
#233 = ADVANCED_FACE ( 'NONE', ( #271, #70 ), #60, .T. ) ;
#234 = PRODUCT_DEFINITION_FORMATION_WITH_SPECIFIED_SOURCE ( 'ANY', '', #289, .NOT_KNOWN. ) ;
#235 = ORIENTED_EDGE ( 'NONE', *, *, #126, .T. ) ;
#236 = CLOSED_SHELL ( 'NONE', ( #47, #74, #188, #44, #87, #117, #233, #97, #267, #53, #89, #18, #291 ) ) ;
#237 = PLANE ( 'NONE',  #174 ) ;
#238 = DIRECTION ( 'NONE',  ( 1.000000000000000000, 0.000000000000000000, 0.000000000000000000 ) ) ;
#239 = APPLICATION_CONTEXT ( 'automotive_design' ) ;
#240 = DIRECTION ( 'NONE',  ( 0.000000000000000000, 0.000000000000000000, -1.000000000000000000 ) ) ;
#241 = CIRCLE ( 'NONE', #152, 9.499999999999998224 ) ;
#242 = AXIS2_PLACEMENT_3D ( 'NONE', #50, #49, #133 ) ;
#243 = FACE_BOUND ( 'NONE', #105, .T. ) ;
#244 = PRODUCT_DEFINITION_SHAPE ( 'NONE', 'NONE',  #95 ) ;
#245 = AXIS2_PLACEMENT_3D ( 'NONE', #193, #11, #63 ) ;
#246 = DIRECTION ( 'NONE',  ( -1.000000000000000000, -0.000000000000000000, -0.000000000000000000 ) ) ;
#247 = SURFACE_STYLE_FILL_AREA ( #270 ) ;
#248 = CARTESIAN_POINT ( 'NONE',  ( -24.00000000000000000, 0.000000000000000000, 0.000000000000000000 ) ) ;
#249 = CIRCLE ( 'NONE', #73, 9.422649730810364943 ) ;
#250 = SURFACE_SIDE_STYLE ('',( #29 ) ) ;
#251 = DIRECTION ( 'NONE',  ( 1.000000000000000000, 0.000000000000000000, 0.000000000000000000 ) ) ;
#252 = CARTESIAN_POINT ( 'NONE',  ( 21.55000000000000782, 0.000000000000000000, 0.000000000000000000 ) ) ;
#253 = EDGE_LOOP ( 'NONE', ( #235 ) ) ;
#254 = APPLICATION_CONTEXT ( 'automotive_design' ) ;
#255 = DIRECTION ( 'NONE',  ( 0.000000000000000000, 0.000000000000000000, 1.000000000000000000 ) ) ;
#256 = ORIENTED_EDGE ( 'NONE', *, *, #197, .F. ) ;
#257 = CARTESIAN_POINT ( 'NONE',  ( -21.55000000000000071, 0.000000000000000000, 9.999999999999996447 ) ) ;
#258 = CARTESIAN_POINT ( 'NONE',  ( -20.25000000000000355, 0.000000000000000000, 9.499999999999998224 ) ) ;
#259 = AXIS2_PLACEMENT_3D ( 'NONE', #158, #113, #295 ) ;
#260 = ORIENTED_EDGE ( 'NONE', *, *, #226, .T. ) ;
#261 = CARTESIAN_POINT ( 'NONE',  ( -20.25000000000000000, 0.000000000000000000, 9.999999999999996447 ) ) ;
#262 = DIRECTION ( 'NONE',  ( -0.000000000000000000, 0.000000000000000000, 1.000000000000000000 ) ) ;
#263 = AXIS2_PLACEMENT_3D ( 'NONE', #57, #6, #33 ) ;
#264 = DIRECTION ( 'NONE',  ( -0.000000000000000000, 0.000000000000000000, 1.000000000000000000 ) ) ;
#265 = COLOUR_RGB ( '',0.8274509803921568096, 0.8392156862745098200, 0.8274509803921568096 ) ;
#266 = DIRECTION ( 'NONE',  ( 0.000000000000000000, 0.000000000000000000, 1.000000000000000000 ) ) ;
#267 = ADVANCED_FACE ( 'NONE', ( #81, #217 ), #280, .T. ) ;
#268 = EDGE_LOOP ( 'NONE', ( #61 ) ) ;
#269 = DIRECTION ( 'NONE',  ( 0.000000000000000000, 0.000000000000000000, 1.000000000000000000 ) ) ;
#270 = FILL_AREA_STYLE ('',( #28 ) ) ;
#271 = FACE_OUTER_BOUND ( 'NONE', #166, .T. ) ;
#272 = DIRECTION ( 'NONE',  ( 0.000000000000000000, 0.000000000000000000, 1.000000000000000000 ) ) ;
#273 =( LENGTH_UNIT ( ) NAMED_UNIT ( * ) SI_UNIT ( .MILLI., .METRE. ) );
#274 = AXIS2_PLACEMENT_3D ( 'NONE', #96, #206, #1 ) ;
#275 = DIRECTION ( 'NONE',  ( 1.000000000000000000, 0.000000000000000000, 0.000000000000000000 ) ) ;
#276 = APPLICATION_PROTOCOL_DEFINITION ( 'draft international standard', 'automotive_design', 1998, #254 ) ;
#277 = FILL_AREA_STYLE_COLOUR ( '', #265 ) ;
#278 = ORIENTED_EDGE ( 'NONE', *, *, #172, .T. ) ;
#279 = VERTEX_POINT ( 'NONE', #257 ) ;
#280 = CYLINDRICAL_SURFACE ( 'NONE', #263, 9.499999999999998224 ) ;
#281 = EDGE_LOOP ( 'NONE', ( #162 ) ) ;
#282 = ORIENTED_EDGE ( 'NONE', *, *, #132, .T. ) ;
#283 = DIRECTION ( 'NONE',  ( -1.000000000000000000, -0.000000000000000000, -0.000000000000000000 ) ) ;
#284 = DIRECTION ( 'NONE',  ( -1.000000000000000000, -0.000000000000000000, -0.000000000000000000 ) ) ;
#285 = PRODUCT_RELATED_PRODUCT_CATEGORY ( 'part', '', ( #289 ) ) ;
#286 = CARTESIAN_POINT ( 'NONE',  ( 21.55000000000000782, 0.000000000000000000, 9.500000000000001776 ) ) ;
#287 = AXIS2_PLACEMENT_3D ( 'NONE', #14, #178, #269 ) ;
#288 = CARTESIAN_POINT ( 'NONE',  ( -20.25000000000000355, 0.000000000000000000, 0.000000000000000000 ) ) ;
#289 = PRODUCT ( '76.04.06.0007', '76.04.06.0007', '', ( #25 ) ) ;
#290 = ORIENTED_EDGE ( 'NONE', *, *, #16, .T. ) ;
#291 = ADVANCED_FACE ( 'NONE', ( #56 ), #192, .F. ) ;
#292 = CARTESIAN_POINT ( 'NONE',  ( -24.00000000000000000, 0.000000000000000000, 0.000000000000000000 ) ) ;
#293 = STYLED_ITEM ( 'NONE', ( #159 ), #176 ) ;
#294 = PLANE ( 'NONE',  #5 ) ;
#295 = DIRECTION ( 'NONE',  ( 0.000000000000000000, 0.000000000000000000, 1.000000000000000000 ) ) ;
#296 = UNCERTAINTY_MEASURE_WITH_UNIT (LENGTH_MEASURE( 1.000000000000000082E-05 ), #91, 'distance_accuracy_value', 'NONE');
#297 = PLANE ( 'NONE',  #148 ) ;
#298 = CARTESIAN_POINT ( 'NONE',  ( -21.55000000000000426, 0.000000000000000000, 0.000000000000000000 ) ) ;
#299 = EDGE_LOOP ( 'NONE', ( #58 ) ) ;
#300 = CIRCLE ( 'NONE', #287, 10.00000000000000178 ) ;
ENDSEC;
END-ISO-10303-21;
