ISO-10303-21;
HEADER;
FILE_DESCRIPTION (( 'STEP AP214' ),
    '1' );
FILE_NAME ('76.04.06.0003.step',
    '2021-04-02T18:04:24',
    ( '' ),
    ( '' ),
    'SwSTEP 2.0',
    'SolidWorks 2021',
    '' );
FILE_SCHEMA (( 'AUTOMOTIVE_DESIGN' ));
ENDSEC;

DATA;
#1 = FACE_BOUND ( 'NONE', #259, .T. ) ;
#2 = CARTESIAN_POINT ( 'NONE',  ( 0.000000000000000000, 0.000000000000000000, 0.000000000000000000 ) ) ;
#3 = DIRECTION ( 'NONE',  ( 0.000000000000000000, 0.000000000000000000, 1.000000000000000000 ) ) ;
#4 = PRODUCT_DEFINITION ( 'UNKNOWN', '', #193, #268 ) ;
#5 = VERTEX_POINT ( 'NONE', #210 ) ;
#6 = CARTESIAN_POINT ( 'NONE',  ( -12.50000000000000000, 0.000000000000000000, 0.000000000000000000 ) ) ;
#7 = CIRCLE ( 'NONE', #72, 5.000000000000000000 ) ;
#8 = VERTEX_POINT ( 'NONE', #184 ) ;
#9 = CARTESIAN_POINT ( 'NONE',  ( 12.50000000000000000, 0.000000000000000000, 0.000000000000000000 ) ) ;
#10 = ORIENTED_EDGE ( 'NONE', *, *, #42, .F. ) ;
#11 = VERTEX_POINT ( 'NONE', #88 ) ;
#12 = PRESENTATION_LAYER_ASSIGNMENT (  '', '', ( #183 ) ) ;
#13 = EDGE_LOOP ( 'NONE', ( #64 ) ) ;
#14 = ADVANCED_FACE ( 'NONE', ( #115, #92 ), #119, .T. ) ;
#15 = AXIS2_PLACEMENT_3D ( 'NONE', #55, #52, #276 ) ;
#16 = ORIENTED_EDGE ( 'NONE', *, *, #237, .T. ) ;
#17 = CLOSED_SHELL ( 'NONE', ( #195, #201, #261, #53, #14, #296, #70, #81, #175, #87, #113, #293, #152 ) ) ;
#18 = ORIENTED_EDGE ( 'NONE', *, *, #169, .T. ) ;
#19 = DIRECTION ( 'NONE',  ( 1.000000000000000000, 0.000000000000000000, 0.000000000000000000 ) ) ;
#20 =( NAMED_UNIT ( * ) PLANE_ANGLE_UNIT ( ) SI_UNIT ( $, .RADIAN. ) );
#21 = CIRCLE ( 'NONE', #285, 4.999999999999996447 ) ;
#22 = SURFACE_SIDE_STYLE ('',( #298 ) ) ;
#23 = DIRECTION ( 'NONE',  ( -1.000000000000000000, -0.000000000000000000, -0.000000000000000000 ) ) ;
#24 = CARTESIAN_POINT ( 'NONE',  ( -12.00000000000000000, 0.000000000000000000, 0.000000000000000000 ) ) ;
#25 =( GEOMETRIC_REPRESENTATION_CONTEXT ( 3 ) GLOBAL_UNCERTAINTY_ASSIGNED_CONTEXT ( ( #187 ) ) GLOBAL_UNIT_ASSIGNED_CONTEXT ( ( #96, #273, #26 ) ) REPRESENTATION_CONTEXT ( 'NONE', 'WORKASPACE' ) );
#26 =( NAMED_UNIT ( * ) SI_UNIT ( $, .STERADIAN. ) SOLID_ANGLE_UNIT ( ) );
#27 = DIRECTION ( 'NONE',  ( 0.000000000000000000, 0.000000000000000000, 1.000000000000000000 ) ) ;
#28 = CARTESIAN_POINT ( 'NONE',  ( -12.00000000000000000, 0.000000000000000000, 4.999999999999996447 ) ) ;
#29 = DIRECTION ( 'NONE',  ( -1.000000000000000000, -0.000000000000000000, -0.000000000000000000 ) ) ;
#30 = CARTESIAN_POINT ( 'NONE',  ( -12.50000000000000000, 0.000000000000000000, 0.000000000000000000 ) ) ;
#31 = CIRCLE ( 'NONE', #158, 4.799999999999996270 ) ;
#32 = DIRECTION ( 'NONE',  ( 0.000000000000000000, 0.000000000000000000, 1.000000000000000000 ) ) ;
#33 = ORIENTED_EDGE ( 'NONE', *, *, #237, .F. ) ;
#34 = DIRECTION ( 'NONE',  ( 1.000000000000000000, 0.000000000000000000, 0.000000000000000000 ) ) ;
#35 = EDGE_LOOP ( 'NONE', ( #130 ) ) ;
#36 = MANIFOLD_SOLID_BREP ( 'Revolve1', #17 ) ;
#37 = ORIENTED_EDGE ( 'NONE', *, *, #118, .F. ) ;
#38 = CIRCLE ( 'NONE', #258, 4.711324865405180695 ) ;
#39 = EDGE_LOOP ( 'NONE', ( #234 ) ) ;
#40 = EDGE_LOOP ( 'NONE', ( #262 ) ) ;
#41 = PRODUCT_DEFINITION_SHAPE ( 'NONE', 'NONE',  #4 ) ;
#42 = EDGE_CURVE ( 'NONE', #11, #11, #38, .T. ) ;
#43 = AXIS2_PLACEMENT_3D ( 'NONE', #196, #83, #65 ) ;
#44 = CARTESIAN_POINT ( 'NONE',  ( 12.50000000000000000, 0.000000000000000000, 0.000000000000000000 ) ) ;
#45 = DIRECTION ( 'NONE',  ( 0.000000000000000000, 0.000000000000000000, 1.000000000000000000 ) ) ;
#46 = EDGE_LOOP ( 'NONE', ( #214 ) ) ;
#47 = AXIS2_PLACEMENT_3D ( 'NONE', #6, #145, #230 ) ;
#48 =( NAMED_UNIT ( * ) SI_UNIT ( $, .STERADIAN. ) SOLID_ANGLE_UNIT ( ) );
#49 = EDGE_CURVE ( 'NONE', #99, #99, #134, .T. ) ;
#50 = DIRECTION ( 'NONE',  ( -1.000000000000000000, -0.000000000000000000, -0.000000000000000000 ) ) ;
#51 = FILL_AREA_STYLE_COLOUR ( '', #63 ) ;
#52 = DIRECTION ( 'NONE',  ( -1.000000000000000000, -0.000000000000000000, -0.000000000000000000 ) ) ;
#53 = ADVANCED_FACE ( 'NONE', ( #271, #159 ), #223, .F. ) ;
#54 = AXIS2_PLACEMENT_3D ( 'NONE', #240, #295, #114 ) ;
#55 = CARTESIAN_POINT ( 'NONE',  ( 11.34999999999999964, 0.000000000000000000, 0.000000000000000000 ) ) ;
#56 = CARTESIAN_POINT ( 'NONE',  ( -11.34999999999999964, 0.000000000000000000, 0.000000000000000000 ) ) ;
#57 = CYLINDRICAL_SURFACE ( 'NONE', #47, 4.799999999999997158 ) ;
#58 = AXIS2_PLACEMENT_3D ( 'NONE', #9, #100, #185 ) ;
#59 = EDGE_LOOP ( 'NONE', ( #194 ) ) ;
#60 = EDGE_LOOP ( 'NONE', ( #131 ) ) ;
#61 = EDGE_CURVE ( 'NONE', #8, #8, #213, .T. ) ;
#62 = EDGE_LOOP ( 'NONE', ( #243 ) ) ;
#63 = COLOUR_RGB ( '',0.8274509803921568096, 0.8392156862745098200, 0.8274509803921568096 ) ;
#64 = ORIENTED_EDGE ( 'NONE', *, *, #221, .F. ) ;
#65 = DIRECTION ( 'NONE',  ( 0.000000000000000000, 0.000000000000000000, -1.000000000000000000 ) ) ;
#66 = EDGE_LOOP ( 'NONE', ( #264 ) ) ;
#67 = PRESENTATION_STYLE_ASSIGNMENT (( #68 ) ) ;
#68 = SURFACE_STYLE_USAGE ( .BOTH. , #22 ) ;
#69 = DIRECTION ( 'NONE',  ( -1.000000000000000000, -0.000000000000000000, -0.000000000000000000 ) ) ;
#70 = ADVANCED_FACE ( 'NONE', ( #162, #137 ), #294, .T. ) ;
#71 = AXIS2_PLACEMENT_3D ( 'NONE', #267, #19, #198 ) ;
#72 = AXIS2_PLACEMENT_3D ( 'NONE', #192, #75, #166 ) ;
#73 = FACE_OUTER_BOUND ( 'NONE', #40, .T. ) ;
#74 = CARTESIAN_POINT ( 'NONE',  ( 11.34999999999999964, 0.000000000000000000, 5.000000000000000000 ) ) ;
#75 = DIRECTION ( 'NONE',  ( -1.000000000000000000, -0.000000000000000000, -0.000000000000000000 ) ) ;
#76 = DIRECTION ( 'NONE',  ( 0.000000000000000000, 0.000000000000000000, 1.000000000000000000 ) ) ;
#77 = CARTESIAN_POINT ( 'NONE',  ( 10.24999999999999822, 0.000000000000000000, 5.000000000000000000 ) ) ;
#78 = PLANE ( 'NONE',  #122 ) ;
#79 = VERTEX_POINT ( 'NONE', #77 ) ;
#80 = DIRECTION ( 'NONE',  ( -0.000000000000000000, 0.000000000000000000, 1.000000000000000000 ) ) ;
#81 = ADVANCED_FACE ( 'NONE', ( #266, #93 ), #177, .F. ) ;
#82 = EDGE_LOOP ( 'NONE', ( #270 ) ) ;
#83 = DIRECTION ( 'NONE',  ( 1.000000000000000000, 0.000000000000000000, 0.000000000000000000 ) ) ;
#84 = ORIENTED_EDGE ( 'NONE', *, *, #61, .T. ) ;
#85 = DIRECTION ( 'NONE',  ( -1.000000000000000000, 0.000000000000000000, -0.000000000000000000 ) ) ;
#86 = EDGE_LOOP ( 'NONE', ( #110 ) ) ;
#87 = ADVANCED_FACE ( 'NONE', ( #161, #244 ), #199, .F. ) ;
#88 = CARTESIAN_POINT ( 'NONE',  ( 12.50000000000000000, 0.000000000000000000, 4.711324865405180695 ) ) ;
#89 = EDGE_LOOP ( 'NONE', ( #132 ) ) ;
#90 = AXIS2_PLACEMENT_3D ( 'NONE', #176, #197, #217 ) ;
#91 = CIRCLE ( 'NONE', #256, 4.999999999999997335 ) ;
#92 = FACE_OUTER_BOUND ( 'NONE', #35, .T. ) ;
#93 = FACE_OUTER_BOUND ( 'NONE', #265, .T. ) ;
#94 = EDGE_CURVE ( 'NONE', #252, #252, #231, .T. ) ;
#95 = ORIENTED_EDGE ( 'NONE', *, *, #42, .T. ) ;
#96 =( LENGTH_UNIT ( ) NAMED_UNIT ( * ) SI_UNIT ( .MILLI., .METRE. ) );
#97 = DIRECTION ( 'NONE',  ( 0.000000000000000000, 0.000000000000000000, 1.000000000000000000 ) ) ;
#98 = MECHANICAL_DESIGN_GEOMETRIC_PRESENTATION_REPRESENTATION (  '', ( #215 ), #25 ) ;
#99 = VERTEX_POINT ( 'NONE', #277 ) ;
#100 = DIRECTION ( 'NONE',  ( -1.000000000000000000, -0.000000000000000000, -0.000000000000000000 ) ) ;
#101 = CARTESIAN_POINT ( 'NONE',  ( -11.34999999999999964, 0.000000000000000000, 4.799999999999996270 ) ) ;
#102 = DIRECTION ( 'NONE',  ( 0.000000000000000000, 0.000000000000000000, 1.000000000000000000 ) ) ;
#103 = VERTEX_POINT ( 'NONE', #74 ) ;
#104 = FACE_BOUND ( 'NONE', #59, .T. ) ;
#105 =( NAMED_UNIT ( * ) SI_UNIT ( $, .STERADIAN. ) SOLID_ANGLE_UNIT ( ) );
#106 = CARTESIAN_POINT ( 'NONE',  ( 11.34999999999999964, 0.000000000000000000, 0.000000000000000000 ) ) ;
#107 = EDGE_LOOP ( 'NONE', ( #37 ) ) ;
#108 =( GEOMETRIC_REPRESENTATION_CONTEXT ( 3 ) GLOBAL_UNCERTAINTY_ASSIGNED_CONTEXT ( ( #141 ) ) GLOBAL_UNIT_ASSIGNED_CONTEXT ( ( #216, #20, #48 ) ) REPRESENTATION_CONTEXT ( 'NONE', 'WORKASPACE' ) );
#109 = SHAPE_DEFINITION_REPRESENTATION ( #41, #111 ) ;
#110 = ORIENTED_EDGE ( 'NONE', *, *, #242, .T. ) ;
#111 = ADVANCED_BREP_SHAPE_REPRESENTATION ( '76.04.06.0003', ( #36, #116 ), #182 ) ;
#112 = ORIENTED_EDGE ( 'NONE', *, *, #189, .F. ) ;
#113 = ADVANCED_FACE ( 'NONE', ( #73, #282 ), #164, .T. ) ;
#114 = DIRECTION ( 'NONE',  ( 0.000000000000000000, 0.000000000000000000, -1.000000000000000000 ) ) ;
#115 = FACE_OUTER_BOUND ( 'NONE', #120, .T. ) ;
#116 = AXIS2_PLACEMENT_3D ( 'NONE', #2, #255, #34 ) ;
#117 = DIRECTION ( 'NONE',  ( 0.000000000000000000, 0.000000000000000000, 1.000000000000000000 ) ) ;
#118 = EDGE_CURVE ( 'NONE', #126, #126, #163, .T. ) ;
#119 = CYLINDRICAL_SURFACE ( 'NONE', #246, 4.799999999999998934 ) ;
#120 = EDGE_LOOP ( 'NONE', ( #33 ) ) ;
#121 = DIRECTION ( 'NONE',  ( -0.000000000000000000, 0.000000000000000000, 1.000000000000000000 ) ) ;
#122 = AXIS2_PLACEMENT_3D ( 'NONE', #125, #211, #121 ) ;
#123 = CARTESIAN_POINT ( 'NONE',  ( 11.34999999999999964, 0.000000000000000000, 4.799999999999998934 ) ) ;
#124 = UNCERTAINTY_MEASURE_WITH_UNIT (LENGTH_MEASURE( 1.000000000000000082E-05 ), #150, 'distance_accuracy_value', 'NONE');
#125 = CARTESIAN_POINT ( 'NONE',  ( 12.50000000000000000, 0.000000000000000000, 0.000000000000000000 ) ) ;
#126 = VERTEX_POINT ( 'NONE', #279 ) ;
#127 = DIRECTION ( 'NONE',  ( -1.000000000000000000, -0.000000000000000000, -0.000000000000000000 ) ) ;
#128 = FACE_OUTER_BOUND ( 'NONE', #289, .T. ) ;
#129 = ORIENTED_EDGE ( 'NONE', *, *, #136, .T. ) ;
#130 = ORIENTED_EDGE ( 'NONE', *, *, #207, .T. ) ;
#131 = ORIENTED_EDGE ( 'NONE', *, *, #94, .T. ) ;
#132 = ORIENTED_EDGE ( 'NONE', *, *, #207, .F. ) ;
#133 = PRESENTATION_LAYER_ASSIGNMENT (  '', '', ( #215 ) ) ;
#134 = CIRCLE ( 'NONE', #147, 4.711324865405180695 ) ;
#135 = CARTESIAN_POINT ( 'NONE',  ( -12.50000000000000000, 0.000000000000000000, 0.000000000000000000 ) ) ;
#136 = EDGE_CURVE ( 'NONE', #5, #5, #91, .T. ) ;
#137 = FACE_OUTER_BOUND ( 'NONE', #86, .T. ) ;
#138 = FILL_AREA_STYLE_COLOUR ( '', #178 ) ;
#139 = AXIS2_PLACEMENT_3D ( 'NONE', #297, #179, #80 ) ;
#140 = AXIS2_PLACEMENT_3D ( 'NONE', #188, #127, #3 ) ;
#141 = UNCERTAINTY_MEASURE_WITH_UNIT (LENGTH_MEASURE( 1.000000000000000082E-05 ), #216, 'distance_accuracy_value', 'NONE');
#142 = CARTESIAN_POINT ( 'NONE',  ( -12.50000000000000000, 0.000000000000000000, 0.000000000000000000 ) ) ;
#143 = DIRECTION ( 'NONE',  ( 0.000000000000000000, 0.000000000000000000, 1.000000000000000000 ) ) ;
#144 = PRESENTATION_STYLE_ASSIGNMENT (( #224 ) ) ;
#145 = DIRECTION ( 'NONE',  ( -1.000000000000000000, -0.000000000000000000, -0.000000000000000000 ) ) ;
#146 = DIRECTION ( 'NONE',  ( -1.000000000000000000, -0.000000000000000000, -0.000000000000000000 ) ) ;
#147 = AXIS2_PLACEMENT_3D ( 'NONE', #135, #181, #45 ) ;
#148 = APPLICATION_PROTOCOL_DEFINITION ( 'draft international standard', 'automotive_design', 1998, #180 ) ;
#149 = DIRECTION ( 'NONE',  ( -1.000000000000000000, -0.000000000000000000, -0.000000000000000000 ) ) ;
#150 =( LENGTH_UNIT ( ) NAMED_UNIT ( * ) SI_UNIT ( .MILLI., .METRE. ) );
#151 = FACE_OUTER_BOUND ( 'NONE', #236, .T. ) ;
#152 = ADVANCED_FACE ( 'NONE', ( #170 ), #253, .F. ) ;
#153 = CARTESIAN_POINT ( 'NONE',  ( -11.34999999999999964, 0.000000000000000000, 0.000000000000000000 ) ) ;
#154 = AXIS2_PLACEMENT_3D ( 'NONE', #106, #149, #76 ) ;
#155 = CARTESIAN_POINT ( 'NONE',  ( 10.24999999999999822, 4.799999999999999822, 0.000000000000000000 ) ) ;
#156 = PRODUCT ( '76.04.06.0003', '76.04.06.0003', '', ( #281 ) ) ;
#157 = AXIS2_PLACEMENT_3D ( 'NONE', #247, #23, #117 ) ;
#158 = AXIS2_PLACEMENT_3D ( 'NONE', #153, #233, #32 ) ;
#159 = FACE_OUTER_BOUND ( 'NONE', #239, .T. ) ;
#160 = EDGE_LOOP ( 'NONE', ( #10 ) ) ;
#161 = FACE_OUTER_BOUND ( 'NONE', #39, .T. ) ;
#162 = FACE_OUTER_BOUND ( 'NONE', #62, .T. ) ;
#163 = CIRCLE ( 'NONE', #241, 4.999999999999999112 ) ;
#164 = CYLINDRICAL_SURFACE ( 'NONE', #291, 4.999999999999997335 ) ;
#165 = VERTEX_POINT ( 'NONE', #123 ) ;
#166 = DIRECTION ( 'NONE',  ( 0.000000000000000000, 0.000000000000000000, 1.000000000000000000 ) ) ;
#167 = CYLINDRICAL_SURFACE ( 'NONE', #232, 4.999999999999999112 ) ;
#168 = MECHANICAL_DESIGN_GEOMETRIC_PRESENTATION_REPRESENTATION (  '', ( #183 ), #108 ) ;
#169 = EDGE_CURVE ( 'NONE', #228, #228, #21, .T. ) ;
#170 = FACE_OUTER_BOUND ( 'NONE', #238, .T. ) ;
#171 = CARTESIAN_POINT ( 'NONE',  ( -10.24999999999999822, 0.000000000000000000, 0.000000000000000000 ) ) ;
#172 = CIRCLE ( 'NONE', #15, 4.799999999999998934 ) ;
#173 = ORIENTED_EDGE ( 'NONE', *, *, #49, .T. ) ;
#174 = EDGE_LOOP ( 'NONE', ( #287 ) ) ;
#175 = ADVANCED_FACE ( 'NONE', ( #151, #128 ), #57, .T. ) ;
#176 = CARTESIAN_POINT ( 'NONE',  ( -12.50000000000000000, 0.000000000000000000, 0.000000000000000000 ) ) ;
#177 = PLANE ( 'NONE',  #71 ) ;
#178 = COLOUR_RGB ( '',0.8274509803921568096, 0.8392156862745098200, 0.8274509803921568096 ) ;
#179 = DIRECTION ( 'NONE',  ( -1.000000000000000000, 0.000000000000000000, -0.000000000000000000 ) ) ;
#180 = APPLICATION_CONTEXT ( 'automotive_design' ) ;
#181 = DIRECTION ( 'NONE',  ( -1.000000000000000000, -0.000000000000000000, -0.000000000000000000 ) ) ;
#182 =( GEOMETRIC_REPRESENTATION_CONTEXT ( 3 ) GLOBAL_UNCERTAINTY_ASSIGNED_CONTEXT ( ( #124 ) ) GLOBAL_UNIT_ASSIGNED_CONTEXT ( ( #150, #186, #105 ) ) REPRESENTATION_CONTEXT ( 'NONE', 'WORKASPACE' ) );
#183 = STYLED_ITEM ( 'NONE', ( #67 ), #36 ) ;
#184 = CARTESIAN_POINT ( 'NONE',  ( -10.24999999999999822, 0.000000000000000000, 4.799999999999997158 ) ) ;
#185 = DIRECTION ( 'NONE',  ( 0.000000000000000000, 0.000000000000000000, 1.000000000000000000 ) ) ;
#186 =( NAMED_UNIT ( * ) PLANE_ANGLE_UNIT ( ) SI_UNIT ( $, .RADIAN. ) );
#187 = UNCERTAINTY_MEASURE_WITH_UNIT (LENGTH_MEASURE( 1.000000000000000082E-05 ), #96, 'distance_accuracy_value', 'NONE');
#188 = CARTESIAN_POINT ( 'NONE',  ( 10.24999999999999822, 0.000000000000000000, 0.000000000000000000 ) ) ;
#189 = EDGE_CURVE ( 'NONE', #250, #250, #31, .T. ) ;
#190 = DIRECTION ( 'NONE',  ( -1.000000000000000000, -0.000000000000000000, -0.000000000000000000 ) ) ;
#191 = APPLICATION_PROTOCOL_DEFINITION ( 'draft international standard', 'automotive_design', 1998, #288 ) ;
#192 = CARTESIAN_POINT ( 'NONE',  ( 10.24999999999999822, 0.000000000000000000, 0.000000000000000000 ) ) ;
#193 = PRODUCT_DEFINITION_FORMATION_WITH_SPECIFIED_SOURCE ( 'ANY', '', #156, .NOT_KNOWN. ) ;
#194 = ORIENTED_EDGE ( 'NONE', *, *, #49, .F. ) ;
#195 = ADVANCED_FACE ( 'NONE', ( #202 ), #78, .F. ) ;
#196 = CARTESIAN_POINT ( 'NONE',  ( -12.00000000000000000, 0.000000000000000000, 0.000000000000000000 ) ) ;
#197 = DIRECTION ( 'NONE',  ( -1.000000000000000000, -0.000000000000000000, -0.000000000000000000 ) ) ;
#198 = DIRECTION ( 'NONE',  ( 0.000000000000000000, 0.000000000000000000, -1.000000000000000000 ) ) ;
#199 = PLANE ( 'NONE',  #139 ) ;
#200 = FILL_AREA_STYLE ('',( #138 ) ) ;
#201 = ADVANCED_FACE ( 'NONE', ( #204, #1 ), #219, .T. ) ;
#202 = FACE_OUTER_BOUND ( 'NONE', #160, .T. ) ;
#203 = AXIS2_PLACEMENT_3D ( 'NONE', #155, #85, #235 ) ;
#204 = FACE_OUTER_BOUND ( 'NONE', #107, .T. ) ;
#205 = SURFACE_STYLE_FILL_AREA ( #299 ) ;
#206 = DIRECTION ( 'NONE',  ( -1.000000000000000000, -0.000000000000000000, -0.000000000000000000 ) ) ;
#207 = EDGE_CURVE ( 'NONE', #165, #165, #172, .T. ) ;
#208 = VERTEX_POINT ( 'NONE', #275 ) ;
#209 = DIRECTION ( 'NONE',  ( 0.000000000000000000, 0.000000000000000000, 1.000000000000000000 ) ) ;
#210 = CARTESIAN_POINT ( 'NONE',  ( -10.24999999999999822, 0.000000000000000000, 4.999999999999997335 ) ) ;
#211 = DIRECTION ( 'NONE',  ( -1.000000000000000000, 0.000000000000000000, -0.000000000000000000 ) ) ;
#212 = EDGE_LOOP ( 'NONE', ( #18 ) ) ;
#213 = CIRCLE ( 'NONE', #157, 4.799999999999997158 ) ;
#214 = ORIENTED_EDGE ( 'NONE', *, *, #242, .F. ) ;
#215 = STYLED_ITEM ( 'NONE', ( #144 ), #111 ) ;
#216 =( LENGTH_UNIT ( ) NAMED_UNIT ( * ) SI_UNIT ( .MILLI., .METRE. ) );
#217 = DIRECTION ( 'NONE',  ( 0.000000000000000000, 0.000000000000000000, 1.000000000000000000 ) ) ;
#218 = EDGE_LOOP ( 'NONE', ( #16 ) ) ;
#219 = CONICAL_SURFACE ( 'NONE', #58, 4.711324865405180695, 0.5235987755983066982 ) ;
#220 = DIRECTION ( 'NONE',  ( 0.000000000000000000, 0.000000000000000000, 1.000000000000000000 ) ) ;
#221 = EDGE_CURVE ( 'NONE', #103, #103, #225, .T. ) ;
#222 = SURFACE_SIDE_STYLE ('',( #205 ) ) ;
#223 = PLANE ( 'NONE',  #54 ) ;
#224 = SURFACE_STYLE_USAGE ( .BOTH. , #222 ) ;
#225 = CIRCLE ( 'NONE', #154, 5.000000000000000000 ) ;
#226 = CARTESIAN_POINT ( 'NONE',  ( -11.34999999999999964, 0.000000000000000000, 4.999999999999997335 ) ) ;
#227 = DIRECTION ( 'NONE',  ( 0.000000000000000000, 0.000000000000000000, 1.000000000000000000 ) ) ;
#228 = VERTEX_POINT ( 'NONE', #28 ) ;
#229 = CARTESIAN_POINT ( 'NONE',  ( -12.50000000000000000, 0.000000000000000000, 0.000000000000000000 ) ) ;
#230 = DIRECTION ( 'NONE',  ( 0.000000000000000000, 0.000000000000000000, 1.000000000000000000 ) ) ;
#231 = CIRCLE ( 'NONE', #260, 4.999999999999997335 ) ;
#232 = AXIS2_PLACEMENT_3D ( 'NONE', #229, #29, #209 ) ;
#233 = DIRECTION ( 'NONE',  ( -1.000000000000000000, -0.000000000000000000, -0.000000000000000000 ) ) ;
#234 = ORIENTED_EDGE ( 'NONE', *, *, #94, .F. ) ;
#235 = DIRECTION ( 'NONE',  ( -0.000000000000000000, 0.000000000000000000, 1.000000000000000000 ) ) ;
#236 = EDGE_LOOP ( 'NONE', ( #112 ) ) ;
#237 = EDGE_CURVE ( 'NONE', #208, #208, #263, .T. ) ;
#238 = EDGE_LOOP ( 'NONE', ( #173 ) ) ;
#239 = EDGE_LOOP ( 'NONE', ( #292 ) ) ;
#240 = CARTESIAN_POINT ( 'NONE',  ( 11.34999999999999964, 5.000000000000000000, 0.000000000000000000 ) ) ;
#241 = AXIS2_PLACEMENT_3D ( 'NONE', #248, #206, #254 ) ;
#242 = EDGE_CURVE ( 'NONE', #79, #79, #7, .T. ) ;
#243 = ORIENTED_EDGE ( 'NONE', *, *, #136, .F. ) ;
#244 = FACE_BOUND ( 'NONE', #174, .T. ) ;
#245 = AXIS2_PLACEMENT_3D ( 'NONE', #300, #280, #251 ) ;
#246 = AXIS2_PLACEMENT_3D ( 'NONE', #142, #69, #220 ) ;
#247 = CARTESIAN_POINT ( 'NONE',  ( -10.24999999999999822, 0.000000000000000000, 0.000000000000000000 ) ) ;
#248 = CARTESIAN_POINT ( 'NONE',  ( 12.00000000000000000, 0.000000000000000000, 0.000000000000000000 ) ) ;
#249 = FACE_OUTER_BOUND ( 'NONE', #82, .T. ) ;
#250 = VERTEX_POINT ( 'NONE', #101 ) ;
#251 = DIRECTION ( 'NONE',  ( 0.000000000000000000, 0.000000000000000000, -1.000000000000000000 ) ) ;
#252 = VERTEX_POINT ( 'NONE', #226 ) ;
#253 = PLANE ( 'NONE',  #245 ) ;
#254 = DIRECTION ( 'NONE',  ( 0.000000000000000000, 0.000000000000000000, 1.000000000000000000 ) ) ;
#255 = DIRECTION ( 'NONE',  ( 0.000000000000000000, 0.000000000000000000, 1.000000000000000000 ) ) ;
#256 = AXIS2_PLACEMENT_3D ( 'NONE', #171, #146, #27 ) ;
#257 = PLANE ( 'NONE',  #203 ) ;
#258 = AXIS2_PLACEMENT_3D ( 'NONE', #44, #269, #143 ) ;
#259 = EDGE_LOOP ( 'NONE', ( #95 ) ) ;
#260 = AXIS2_PLACEMENT_3D ( 'NONE', #56, #274, #102 ) ;
#261 = ADVANCED_FACE ( 'NONE', ( #278, #249 ), #167, .T. ) ;
#262 = ORIENTED_EDGE ( 'NONE', *, *, #169, .F. ) ;
#263 = CIRCLE ( 'NONE', #140, 4.799999999999999822 ) ;
#264 = ORIENTED_EDGE ( 'NONE', *, *, #61, .F. ) ;
#265 = EDGE_LOOP ( 'NONE', ( #129 ) ) ;
#266 = FACE_BOUND ( 'NONE', #66, .T. ) ;
#267 = CARTESIAN_POINT ( 'NONE',  ( -10.24999999999999822, 4.999999999999997335, 0.000000000000000000 ) ) ;
#268 = PRODUCT_DEFINITION_CONTEXT ( 'detailed design', #288, 'design' ) ;
#269 = DIRECTION ( 'NONE',  ( -1.000000000000000000, -0.000000000000000000, -0.000000000000000000 ) ) ;
#270 = ORIENTED_EDGE ( 'NONE', *, *, #118, .T. ) ;
#271 = FACE_BOUND ( 'NONE', #89, .T. ) ;
#272 = CONICAL_SURFACE ( 'NONE', #43, 4.999999999999996447, 0.5235987755983027014 ) ;
#273 =( NAMED_UNIT ( * ) PLANE_ANGLE_UNIT ( ) SI_UNIT ( $, .RADIAN. ) );
#274 = DIRECTION ( 'NONE',  ( -1.000000000000000000, -0.000000000000000000, -0.000000000000000000 ) ) ;
#275 = CARTESIAN_POINT ( 'NONE',  ( 10.24999999999999822, 0.000000000000000000, 4.799999999999999822 ) ) ;
#276 = DIRECTION ( 'NONE',  ( 0.000000000000000000, 0.000000000000000000, 1.000000000000000000 ) ) ;
#277 = CARTESIAN_POINT ( 'NONE',  ( -12.50000000000000000, 0.000000000000000000, 4.711324865405180695 ) ) ;
#278 = FACE_OUTER_BOUND ( 'NONE', #13, .T. ) ;
#279 = CARTESIAN_POINT ( 'NONE',  ( 12.00000000000000000, 0.000000000000000000, 4.999999999999999112 ) ) ;
#280 = DIRECTION ( 'NONE',  ( 1.000000000000000000, 0.000000000000000000, 0.000000000000000000 ) ) ;
#281 = PRODUCT_CONTEXT ( 'NONE', #180, 'mechanical' ) ;
#282 = FACE_OUTER_BOUND ( 'NONE', #60, .T. ) ;
#283 = FACE_BOUND ( 'NONE', #218, .T. ) ;
#284 = PRODUCT_RELATED_PRODUCT_CATEGORY ( 'part', '', ( #156 ) ) ;
#285 = AXIS2_PLACEMENT_3D ( 'NONE', #24, #50, #97 ) ;
#286 = FACE_OUTER_BOUND ( 'NONE', #212, .T. ) ;
#287 = ORIENTED_EDGE ( 'NONE', *, *, #189, .T. ) ;
#288 = APPLICATION_CONTEXT ( 'automotive_design' ) ;
#289 = EDGE_LOOP ( 'NONE', ( #84 ) ) ;
#290 = FACE_OUTER_BOUND ( 'NONE', #46, .T. ) ;
#291 = AXIS2_PLACEMENT_3D ( 'NONE', #30, #190, #227 ) ;
#292 = ORIENTED_EDGE ( 'NONE', *, *, #221, .T. ) ;
#293 = ADVANCED_FACE ( 'NONE', ( #104, #286 ), #272, .T. ) ;
#294 = CYLINDRICAL_SURFACE ( 'NONE', #90, 4.999999999999999112 ) ;
#295 = DIRECTION ( 'NONE',  ( 1.000000000000000000, 0.000000000000000000, 0.000000000000000000 ) ) ;
#296 = ADVANCED_FACE ( 'NONE', ( #290, #283 ), #257, .F. ) ;
#297 = CARTESIAN_POINT ( 'NONE',  ( -11.34999999999999964, 4.799999999999996270, 0.000000000000000000 ) ) ;
#298 = SURFACE_STYLE_FILL_AREA ( #200 ) ;
#299 = FILL_AREA_STYLE ('',( #51 ) ) ;
#300 = CARTESIAN_POINT ( 'NONE',  ( -12.50000000000000000, 4.711324865405180695, 0.000000000000000000 ) ) ;
ENDSEC;
END-ISO-10303-21;
