ISO-10303-21;
HEADER;
FILE_DESCRIPTION (( 'STEP AP214' ),
    '1' );
FILE_NAME ('76.04.06.0001.step',
    '2021-04-02T18:04:20',
    ( '' ),
    ( '' ),
    'SwSTEP 2.0',
    'SolidWorks 2021',
    '' );
FILE_SCHEMA (( 'AUTOMOTIVE_DESIGN' ));
ENDSEC;

DATA;
#1 =( NAMED_UNIT ( * ) SI_UNIT ( $, .STERADIAN. ) SOLID_ANGLE_UNIT ( ) );
#2 = DIRECTION ( 'NONE',  ( 0.000000000000000000, 0.000000000000000000, 1.000000000000000000 ) ) ;
#3 = EDGE_LOOP ( 'NONE', ( #22 ) ) ;
#4 = EDGE_LOOP ( 'NONE', ( #19 ) ) ;
#5 = VERTEX_POINT ( 'NONE', #115 ) ;
#6 = ORIENTED_EDGE ( 'NONE', *, *, #204, .F. ) ;
#7 = DIRECTION ( 'NONE',  ( -1.000000000000000000, -0.000000000000000000, -0.000000000000000000 ) ) ;
#8 = FACE_OUTER_BOUND ( 'NONE', #61, .T. ) ;
#9 = DIRECTION ( 'NONE',  ( -1.000000000000000000, -0.000000000000000000, -0.000000000000000000 ) ) ;
#10 = AXIS2_PLACEMENT_3D ( 'NONE', #56, #164, #214 ) ;
#11 = PRODUCT_DEFINITION_SHAPE ( 'NONE', 'NONE',  #224 ) ;
#12 = AXIS2_PLACEMENT_3D ( 'NONE', #175, #266, #268 ) ;
#13 = CARTESIAN_POINT ( 'NONE',  ( 6.250000000000000000, 2.850000000000000089, 0.000000000000000000 ) ) ;
#14 = DIRECTION ( 'NONE',  ( -1.000000000000000000, -0.000000000000000000, -0.000000000000000000 ) ) ;
#15 = EDGE_CURVE ( 'NONE', #41, #41, #142, .T. ) ;
#16 = AXIS2_PLACEMENT_3D ( 'NONE', #13, #109, #84 ) ;
#17 = FACE_OUTER_BOUND ( 'NONE', #218, .T. ) ;
#18 = ADVANCED_FACE ( 'NONE', ( #103, #243 ), #80, .F. ) ;
#19 = ORIENTED_EDGE ( 'NONE', *, *, #146, .T. ) ;
#20 = DIRECTION ( 'NONE',  ( 0.000000000000000000, 0.000000000000000000, -1.000000000000000000 ) ) ;
#21 = CYLINDRICAL_SURFACE ( 'NONE', #192, 2.999999999999998224 ) ;
#22 = ORIENTED_EDGE ( 'NONE', *, *, #15, .T. ) ;
#23 = VERTEX_POINT ( 'NONE', #68 ) ;
#24 = AXIS2_PLACEMENT_3D ( 'NONE', #149, #285, #212 ) ;
#25 = CIRCLE ( 'NONE', #69, 2.711324865405183804 ) ;
#26 = DIRECTION ( 'NONE',  ( 1.000000000000000000, 0.000000000000000000, 0.000000000000000000 ) ) ;
#27 = CARTESIAN_POINT ( 'NONE',  ( -6.250000000000000000, 0.000000000000000000, 2.999999999999998668 ) ) ;
#28 = EDGE_LOOP ( 'NONE', ( #71 ) ) ;
#29 = ORIENTED_EDGE ( 'NONE', *, *, #65, .F. ) ;
#30 = FACE_OUTER_BOUND ( 'NONE', #156, .T. ) ;
#31 = STYLED_ITEM ( 'NONE', ( #283 ), #49 ) ;
#32 = PLANE ( 'NONE',  #253 ) ;
#33 = DIRECTION ( 'NONE',  ( 1.000000000000000000, 0.000000000000000000, 0.000000000000000000 ) ) ;
#34 = AXIS2_PLACEMENT_3D ( 'NONE', #151, #53, #75 ) ;
#35 = CARTESIAN_POINT ( 'NONE',  ( -6.250000000000000000, 2.999999999999998668, 0.000000000000000000 ) ) ;
#36 = PLANE ( 'NONE',  #83 ) ;
#37 = FACE_OUTER_BOUND ( 'NONE', #72, .T. ) ;
#38 = ORIENTED_EDGE ( 'NONE', *, *, #241, .F. ) ;
#39 = DIRECTION ( 'NONE',  ( -1.000000000000000000, -0.000000000000000000, -0.000000000000000000 ) ) ;
#40 = ORIENTED_EDGE ( 'NONE', *, *, #161, .T. ) ;
#41 = VERTEX_POINT ( 'NONE', #257 ) ;
#42 = ADVANCED_FACE ( 'NONE', ( #173, #245 ), #36, .F. ) ;
#43 = EDGE_LOOP ( 'NONE', ( #60 ) ) ;
#44 = EDGE_CURVE ( 'NONE', #185, #185, #90, .T. ) ;
#45 = CARTESIAN_POINT ( 'NONE',  ( 8.500000000000000000, 0.000000000000000000, 2.711324865405183804 ) ) ;
#46 = ADVANCED_FACE ( 'NONE', ( #210 ), #32, .F. ) ;
#47 =( LENGTH_UNIT ( ) NAMED_UNIT ( * ) SI_UNIT ( .MILLI., .METRE. ) );
#48 = PRODUCT_DEFINITION_FORMATION_WITH_SPECIFIED_SOURCE ( 'ANY', '', #293, .NOT_KNOWN. ) ;
#49 = MANIFOLD_SOLID_BREP ( 'Revolve1', #237 ) ;
#50 = CARTESIAN_POINT ( 'NONE',  ( 7.050000000000000711, 0.000000000000000000, 3.000000000000000000 ) ) ;
#51 = ORIENTED_EDGE ( 'NONE', *, *, #250, .F. ) ;
#52 = ORIENTED_EDGE ( 'NONE', *, *, #247, .F. ) ;
#53 = DIRECTION ( 'NONE',  ( -1.000000000000000000, -0.000000000000000000, -0.000000000000000000 ) ) ;
#54 = PRESENTATION_LAYER_ASSIGNMENT (  '', '', ( #31 ) ) ;
#55 = CARTESIAN_POINT ( 'NONE',  ( 8.000000000000000000, 0.000000000000000000, 0.000000000000000000 ) ) ;
#56 = CARTESIAN_POINT ( 'NONE',  ( -7.050000000000000711, 0.000000000000000000, 0.000000000000000000 ) ) ;
#57 = DIRECTION ( 'NONE',  ( -0.000000000000000000, 0.000000000000000000, 1.000000000000000000 ) ) ;
#58 = CYLINDRICAL_SURFACE ( 'NONE', #174, 2.849999999999998312 ) ;
#59 = FACE_OUTER_BOUND ( 'NONE', #165, .T. ) ;
#60 = ORIENTED_EDGE ( 'NONE', *, *, #44, .T. ) ;
#61 = EDGE_LOOP ( 'NONE', ( #255 ) ) ;
#62 = DIRECTION ( 'NONE',  ( 0.000000000000000000, 0.000000000000000000, 1.000000000000000000 ) ) ;
#63 = AXIS2_PLACEMENT_3D ( 'NONE', #281, #101, #20 ) ;
#64 = EDGE_LOOP ( 'NONE', ( #87 ) ) ;
#65 = EDGE_CURVE ( 'NONE', #23, #23, #94, .T. ) ;
#66 = AXIS2_PLACEMENT_3D ( 'NONE', #128, #167, #215 ) ;
#67 = PRESENTATION_STYLE_ASSIGNMENT (( #299 ) ) ;
#68 = CARTESIAN_POINT ( 'NONE',  ( 6.250000000000000000, 0.000000000000000000, 2.850000000000000089 ) ) ;
#69 = AXIS2_PLACEMENT_3D ( 'NONE', #196, #39, #225 ) ;
#70 = DIRECTION ( 'NONE',  ( -1.000000000000000000, -0.000000000000000000, -0.000000000000000000 ) ) ;
#71 = ORIENTED_EDGE ( 'NONE', *, *, #146, .F. ) ;
#72 = EDGE_LOOP ( 'NONE', ( #202 ) ) ;
#73 = VERTEX_POINT ( 'NONE', #158 ) ;
#74 = ADVANCED_FACE ( 'NONE', ( #30, #166 ), #240, .T. ) ;
#75 = DIRECTION ( 'NONE',  ( 0.000000000000000000, 0.000000000000000000, 1.000000000000000000 ) ) ;
#76 = MECHANICAL_DESIGN_GEOMETRIC_PRESENTATION_REPRESENTATION (  '', ( #143 ), #292 ) ;
#77 = SURFACE_SIDE_STYLE ('',( #236 ) ) ;
#78 = ADVANCED_FACE ( 'NONE', ( #190, #264 ), #148, .T. ) ;
#79 = FILL_AREA_STYLE_COLOUR ( '', #248 ) ;
#80 = PLANE ( 'NONE',  #16 ) ;
#81 = AXIS2_PLACEMENT_3D ( 'NONE', #55, #289, #261 ) ;
#82 = DIRECTION ( 'NONE',  ( -1.000000000000000000, -0.000000000000000000, -0.000000000000000000 ) ) ;
#83 = AXIS2_PLACEMENT_3D ( 'NONE', #35, #33, #211 ) ;
#84 = DIRECTION ( 'NONE',  ( -0.000000000000000000, 0.000000000000000000, 1.000000000000000000 ) ) ;
#85 = CARTESIAN_POINT ( 'NONE',  ( -8.500000000000000000, 0.000000000000000000, 0.000000000000000000 ) ) ;
#86 = AXIS2_PLACEMENT_3D ( 'NONE', #290, #139, #171 ) ;
#87 = ORIENTED_EDGE ( 'NONE', *, *, #161, .F. ) ;
#88 = FACE_OUTER_BOUND ( 'NONE', #229, .T. ) ;
#89 = ORIENTED_EDGE ( 'NONE', *, *, #15, .F. ) ;
#90 = CIRCLE ( 'NONE', #10, 2.849999999999998312 ) ;
#91 = CARTESIAN_POINT ( 'NONE',  ( -7.049999999999999822, 0.000000000000000000, 0.000000000000000000 ) ) ;
#92 = APPLICATION_PROTOCOL_DEFINITION ( 'draft international standard', 'automotive_design', 1998, #233 ) ;
#93 = EDGE_LOOP ( 'NONE', ( #163 ) ) ;
#94 = CIRCLE ( 'NONE', #24, 2.850000000000000089 ) ;
#95 = FACE_BOUND ( 'NONE', #64, .T. ) ;
#96 = CIRCLE ( 'NONE', #249, 3.000000000000000444 ) ;
#97 = EDGE_LOOP ( 'NONE', ( #29 ) ) ;
#98 = CARTESIAN_POINT ( 'NONE',  ( -7.049999999999999822, 0.000000000000000000, 2.999999999999998224 ) ) ;
#99 = ORIENTED_EDGE ( 'NONE', *, *, #241, .T. ) ;
#100 = ORIENTED_EDGE ( 'NONE', *, *, #172, .T. ) ;
#101 = DIRECTION ( 'NONE',  ( 1.000000000000000000, 0.000000000000000000, 0.000000000000000000 ) ) ;
#102 =( GEOMETRIC_REPRESENTATION_CONTEXT ( 3 ) GLOBAL_UNCERTAINTY_ASSIGNED_CONTEXT ( ( #131 ) ) GLOBAL_UNIT_ASSIGNED_CONTEXT ( ( #47, #145, #180 ) ) REPRESENTATION_CONTEXT ( 'NONE', 'WORKASPACE' ) );
#103 = FACE_OUTER_BOUND ( 'NONE', #226, .T. ) ;
#104 = FACE_OUTER_BOUND ( 'NONE', #28, .T. ) ;
#105 = PLANE ( 'NONE',  #228 ) ;
#106 = DIRECTION ( 'NONE',  ( 0.000000000000000000, 0.000000000000000000, 1.000000000000000000 ) ) ;
#107 = AXIS2_PLACEMENT_3D ( 'NONE', #234, #123, #209 ) ;
#108 = CARTESIAN_POINT ( 'NONE',  ( -8.500000000000000000, 0.000000000000000000, 0.000000000000000000 ) ) ;
#109 = DIRECTION ( 'NONE',  ( -1.000000000000000000, 0.000000000000000000, -0.000000000000000000 ) ) ;
#110 = DIRECTION ( 'NONE',  ( -1.000000000000000000, -0.000000000000000000, -0.000000000000000000 ) ) ;
#111 = DIRECTION ( 'NONE',  ( -1.000000000000000000, 0.000000000000000000, -0.000000000000000000 ) ) ;
#112 = ADVANCED_FACE ( 'NONE', ( #8, #238 ), #105, .F. ) ;
#113 = ADVANCED_FACE ( 'NONE', ( #104, #187 ), #160, .T. ) ;
#114 = FILL_AREA_STYLE ('',( #122 ) ) ;
#115 = CARTESIAN_POINT ( 'NONE',  ( -6.250000000000000000, 0.000000000000000000, 2.849999999999998312 ) ) ;
#116 =( LENGTH_UNIT ( ) NAMED_UNIT ( * ) SI_UNIT ( .MILLI., .METRE. ) );
#117 = FACE_OUTER_BOUND ( 'NONE', #3, .T. ) ;
#118 = DIRECTION ( 'NONE',  ( -1.000000000000000000, -0.000000000000000000, -0.000000000000000000 ) ) ;
#119 = AXIS2_PLACEMENT_3D ( 'NONE', #126, #7, #170 ) ;
#120 = VERTEX_POINT ( 'NONE', #98 ) ;
#121 = EDGE_LOOP ( 'NONE', ( #195 ) ) ;
#122 = FILL_AREA_STYLE_COLOUR ( '', #134 ) ;
#123 = DIRECTION ( 'NONE',  ( -1.000000000000000000, -0.000000000000000000, -0.000000000000000000 ) ) ;
#124 = DIRECTION ( 'NONE',  ( 0.000000000000000000, 0.000000000000000000, 1.000000000000000000 ) ) ;
#125 = DIRECTION ( 'NONE',  ( 1.000000000000000000, 0.000000000000000000, 0.000000000000000000 ) ) ;
#126 = CARTESIAN_POINT ( 'NONE',  ( -8.500000000000000000, 0.000000000000000000, 0.000000000000000000 ) ) ;
#127 = AXIS2_PLACEMENT_3D ( 'NONE', #203, #200, #252 ) ;
#128 = CARTESIAN_POINT ( 'NONE',  ( -8.000000000000000000, 0.000000000000000000, 0.000000000000000000 ) ) ;
#129 = DIRECTION ( 'NONE',  ( 0.000000000000000000, 0.000000000000000000, 1.000000000000000000 ) ) ;
#130 = PRODUCT_DEFINITION_CONTEXT ( 'detailed design', #276, 'design' ) ;
#131 = UNCERTAINTY_MEASURE_WITH_UNIT (LENGTH_MEASURE( 1.000000000000000082E-05 ), #47, 'distance_accuracy_value', 'NONE');
#132 = PLANE ( 'NONE',  #189 ) ;
#133 = EDGE_LOOP ( 'NONE', ( #38 ) ) ;
#134 = COLOUR_RGB ( '',0.8274509803921568096, 0.8392156862745098200, 0.8274509803921568096 ) ;
#135 = FACE_OUTER_BOUND ( 'NONE', #260, .T. ) ;
#136 = CIRCLE ( 'NONE', #235, 2.711324865405183360 ) ;
#137 = UNCERTAINTY_MEASURE_WITH_UNIT (LENGTH_MEASURE( 1.000000000000000082E-05 ), #116, 'distance_accuracy_value', 'NONE');
#138 = CARTESIAN_POINT ( 'NONE',  ( 6.250000000000000000, 0.000000000000000000, 3.000000000000000444 ) ) ;
#139 = DIRECTION ( 'NONE',  ( -1.000000000000000000, -0.000000000000000000, -0.000000000000000000 ) ) ;
#140 = APPLICATION_PROTOCOL_DEFINITION ( 'draft international standard', 'automotive_design', 1998, #276 ) ;
#141 = VERTEX_POINT ( 'NONE', #50 ) ;
#142 = CIRCLE ( 'NONE', #107, 2.850000000000000089 ) ;
#143 = STYLED_ITEM ( 'NONE', ( #67 ), #178 ) ;
#144 = EDGE_LOOP ( 'NONE', ( #258 ) ) ;
#145 =( NAMED_UNIT ( * ) PLANE_ANGLE_UNIT ( ) SI_UNIT ( $, .RADIAN. ) );
#146 = EDGE_CURVE ( 'NONE', #254, #254, #297, .T. ) ;
#147 = ORIENTED_EDGE ( 'NONE', *, *, #247, .T. ) ;
#148 = CYLINDRICAL_SURFACE ( 'NONE', #119, 3.000000000000000000 ) ;
#149 = CARTESIAN_POINT ( 'NONE',  ( 6.250000000000000000, 0.000000000000000000, 0.000000000000000000 ) ) ;
#150 = CIRCLE ( 'NONE', #66, 2.999999999999998224 ) ;
#151 = CARTESIAN_POINT ( 'NONE',  ( 8.500000000000000000, 0.000000000000000000, 0.000000000000000000 ) ) ;
#152 = DIRECTION ( 'NONE',  ( 0.000000000000000000, 0.000000000000000000, 1.000000000000000000 ) ) ;
#153 = EDGE_LOOP ( 'NONE', ( #52 ) ) ;
#154 = EDGE_CURVE ( 'NONE', #208, #208, #150, .T. ) ;
#155 = AXIS2_PLACEMENT_3D ( 'NONE', #91, #296, #271 ) ;
#156 = EDGE_LOOP ( 'NONE', ( #51 ) ) ;
#157 = PRODUCT_CONTEXT ( 'NONE', #233, 'mechanical' ) ;
#158 = CARTESIAN_POINT ( 'NONE',  ( -8.500000000000000000, 0.000000000000000000, 2.711324865405183360 ) ) ;
#159 = VERTEX_POINT ( 'NONE', #45 ) ;
#160 = CONICAL_SURFACE ( 'NONE', #34, 2.711324865405183804, 0.5235987755983040337 ) ;
#161 = EDGE_CURVE ( 'NONE', #73, #73, #136, .T. ) ;
#162 = FACE_OUTER_BOUND ( 'NONE', #205, .T. ) ;
#163 = ORIENTED_EDGE ( 'NONE', *, *, #65, .T. ) ;
#164 = DIRECTION ( 'NONE',  ( -1.000000000000000000, -0.000000000000000000, -0.000000000000000000 ) ) ;
#165 = EDGE_LOOP ( 'NONE', ( #100 ) ) ;
#166 = FACE_OUTER_BOUND ( 'NONE', #144, .T. ) ;
#167 = DIRECTION ( 'NONE',  ( -1.000000000000000000, -0.000000000000000000, -0.000000000000000000 ) ) ;
#168 = AXIS2_PLACEMENT_3D ( 'NONE', #230, #182, #26 ) ;
#169 = SURFACE_STYLE_USAGE ( .BOTH. , #77 ) ;
#170 = DIRECTION ( 'NONE',  ( 0.000000000000000000, 0.000000000000000000, 1.000000000000000000 ) ) ;
#171 = DIRECTION ( 'NONE',  ( 0.000000000000000000, 0.000000000000000000, 1.000000000000000000 ) ) ;
#172 = EDGE_CURVE ( 'NONE', #120, #120, #242, .T. ) ;
#173 = FACE_BOUND ( 'NONE', #133, .T. ) ;
#174 = AXIS2_PLACEMENT_3D ( 'NONE', #219, #191, #152 ) ;
#175 = CARTESIAN_POINT ( 'NONE',  ( -6.250000000000000000, 0.000000000000000000, 0.000000000000000000 ) ) ;
#176 = PRODUCT_RELATED_PRODUCT_CATEGORY ( 'part', '', ( #293 ) ) ;
#177 = CARTESIAN_POINT ( 'NONE',  ( -6.250000000000000000, 0.000000000000000000, 0.000000000000000000 ) ) ;
#178 = ADVANCED_BREP_SHAPE_REPRESENTATION ( '76.04.06.0001', ( #49, #168 ), #102 ) ;
#179 = SURFACE_SIDE_STYLE ('',( #223 ) ) ;
#180 =( NAMED_UNIT ( * ) SI_UNIT ( $, .STERADIAN. ) SOLID_ANGLE_UNIT ( ) );
#181 = FACE_OUTER_BOUND ( 'NONE', #97, .T. ) ;
#182 = DIRECTION ( 'NONE',  ( 0.000000000000000000, 0.000000000000000000, 1.000000000000000000 ) ) ;
#183 = CYLINDRICAL_SURFACE ( 'NONE', #231, 2.850000000000000089 ) ;
#184 = ADVANCED_FACE ( 'NONE', ( #17, #59 ), #21, .T. ) ;
#185 = VERTEX_POINT ( 'NONE', #232 ) ;
#186 =( NAMED_UNIT ( * ) PLANE_ANGLE_UNIT ( ) SI_UNIT ( $, .RADIAN. ) );
#187 = FACE_BOUND ( 'NONE', #269, .T. ) ;
#188 =( NAMED_UNIT ( * ) SI_UNIT ( $, .STERADIAN. ) SOLID_ANGLE_UNIT ( ) );
#189 = AXIS2_PLACEMENT_3D ( 'NONE', #216, #111, #194 ) ;
#190 = FACE_OUTER_BOUND ( 'NONE', #153, .T. ) ;
#191 = DIRECTION ( 'NONE',  ( -1.000000000000000000, -0.000000000000000000, -0.000000000000000000 ) ) ;
#192 = AXIS2_PLACEMENT_3D ( 'NONE', #85, #118, #62 ) ;
#193 = EDGE_LOOP ( 'NONE', ( #207 ) ) ;
#194 = DIRECTION ( 'NONE',  ( -0.000000000000000000, 0.000000000000000000, 1.000000000000000000 ) ) ;
#195 = ORIENTED_EDGE ( 'NONE', *, *, #44, .F. ) ;
#196 = CARTESIAN_POINT ( 'NONE',  ( 8.500000000000000000, 0.000000000000000000, 0.000000000000000000 ) ) ;
#197 = EDGE_CURVE ( 'NONE', #159, #159, #25, .T. ) ;
#198 = SHAPE_DEFINITION_REPRESENTATION ( #11, #178 ) ;
#199 =( NAMED_UNIT ( * ) PLANE_ANGLE_UNIT ( ) SI_UNIT ( $, .RADIAN. ) );
#200 = DIRECTION ( 'NONE',  ( 1.000000000000000000, 0.000000000000000000, 0.000000000000000000 ) ) ;
#201 = CARTESIAN_POINT ( 'NONE',  ( 6.250000000000000000, 0.000000000000000000, 0.000000000000000000 ) ) ;
#202 = ORIENTED_EDGE ( 'NONE', *, *, #197, .F. ) ;
#203 = CARTESIAN_POINT ( 'NONE',  ( 7.050000000000000711, 3.000000000000000000, 0.000000000000000000 ) ) ;
#204 = EDGE_CURVE ( 'NONE', #300, #300, #96, .T. ) ;
#205 = EDGE_LOOP ( 'NONE', ( #274 ) ) ;
#206 = CARTESIAN_POINT ( 'NONE',  ( -8.000000000000000000, 0.000000000000000000, 2.999999999999998224 ) ) ;
#207 = ORIENTED_EDGE ( 'NONE', *, *, #250, .T. ) ;
#208 = VERTEX_POINT ( 'NONE', #206 ) ;
#209 = DIRECTION ( 'NONE',  ( 0.000000000000000000, 0.000000000000000000, 1.000000000000000000 ) ) ;
#210 = FACE_OUTER_BOUND ( 'NONE', #251, .T. ) ;
#211 = DIRECTION ( 'NONE',  ( 0.000000000000000000, 0.000000000000000000, -1.000000000000000000 ) ) ;
#212 = DIRECTION ( 'NONE',  ( 0.000000000000000000, 0.000000000000000000, 1.000000000000000000 ) ) ;
#213 = AXIS2_PLACEMENT_3D ( 'NONE', #108, #9, #106 ) ;
#214 = DIRECTION ( 'NONE',  ( 0.000000000000000000, 0.000000000000000000, 1.000000000000000000 ) ) ;
#215 = DIRECTION ( 'NONE',  ( 0.000000000000000000, 0.000000000000000000, 1.000000000000000000 ) ) ;
#216 = CARTESIAN_POINT ( 'NONE',  ( 8.500000000000000000, 0.000000000000000000, 0.000000000000000000 ) ) ;
#217 = CIRCLE ( 'NONE', #12, 2.999999999999998668 ) ;
#218 = EDGE_LOOP ( 'NONE', ( #282 ) ) ;
#219 = CARTESIAN_POINT ( 'NONE',  ( -8.500000000000000000, 0.000000000000000000, 0.000000000000000000 ) ) ;
#220 = ADVANCED_FACE ( 'NONE', ( #246, #135 ), #58, .T. ) ;
#221 = CONICAL_SURFACE ( 'NONE', #63, 2.999999999999998224, 0.5235987755983014802 ) ;
#222 = PLANE ( 'NONE',  #127 ) ;
#223 = SURFACE_STYLE_FILL_AREA ( #114 ) ;
#224 = PRODUCT_DEFINITION ( 'UNKNOWN', '', #48, #130 ) ;
#225 = DIRECTION ( 'NONE',  ( 0.000000000000000000, 0.000000000000000000, 1.000000000000000000 ) ) ;
#226 = EDGE_LOOP ( 'NONE', ( #6 ) ) ;
#227 = VERTEX_POINT ( 'NONE', #27 ) ;
#228 = AXIS2_PLACEMENT_3D ( 'NONE', #265, #288, #57 ) ;
#229 = EDGE_LOOP ( 'NONE', ( #147 ) ) ;
#230 = CARTESIAN_POINT ( 'NONE',  ( 0.000000000000000000, 0.000000000000000000, 0.000000000000000000 ) ) ;
#231 = AXIS2_PLACEMENT_3D ( 'NONE', #279, #70, #2 ) ;
#232 = CARTESIAN_POINT ( 'NONE',  ( -7.050000000000000711, 0.000000000000000000, 2.849999999999998312 ) ) ;
#233 = APPLICATION_CONTEXT ( 'automotive_design' ) ;
#234 = CARTESIAN_POINT ( 'NONE',  ( 7.050000000000000711, 0.000000000000000000, 0.000000000000000000 ) ) ;
#235 = AXIS2_PLACEMENT_3D ( 'NONE', #262, #14, #124 ) ;
#236 = SURFACE_STYLE_FILL_AREA ( #287 ) ;
#237 = CLOSED_SHELL ( 'NONE', ( #263, #113, #78, #284, #295, #18, #74, #42, #220, #112, #184, #291, #46 ) ) ;
#238 = FACE_BOUND ( 'NONE', #43, .T. ) ;
#239 =( LENGTH_UNIT ( ) NAMED_UNIT ( * ) SI_UNIT ( .MILLI., .METRE. ) );
#240 = CYLINDRICAL_SURFACE ( 'NONE', #213, 2.999999999999999556 ) ;
#241 = EDGE_CURVE ( 'NONE', #5, #5, #278, .T. ) ;
#242 = CIRCLE ( 'NONE', #155, 2.999999999999998224 ) ;
#243 = FACE_BOUND ( 'NONE', #93, .T. ) ;
#244 = CARTESIAN_POINT ( 'NONE',  ( -8.500000000000000000, 2.711324865405183360, 0.000000000000000000 ) ) ;
#245 = FACE_OUTER_BOUND ( 'NONE', #193, .T. ) ;
#246 = FACE_OUTER_BOUND ( 'NONE', #121, .T. ) ;
#247 = EDGE_CURVE ( 'NONE', #141, #141, #256, .T. ) ;
#248 = COLOUR_RGB ( '',0.8274509803921568096, 0.8392156862745098200, 0.8274509803921568096 ) ;
#249 = AXIS2_PLACEMENT_3D ( 'NONE', #201, #110, #129 ) ;
#250 = EDGE_CURVE ( 'NONE', #227, #227, #217, .T. ) ;
#251 = EDGE_LOOP ( 'NONE', ( #40 ) ) ;
#252 = DIRECTION ( 'NONE',  ( 0.000000000000000000, 0.000000000000000000, -1.000000000000000000 ) ) ;
#253 = AXIS2_PLACEMENT_3D ( 'NONE', #244, #125, #259 ) ;
#254 = VERTEX_POINT ( 'NONE', #277 ) ;
#255 = ORIENTED_EDGE ( 'NONE', *, *, #172, .F. ) ;
#256 = CIRCLE ( 'NONE', #86, 3.000000000000000000 ) ;
#257 = CARTESIAN_POINT ( 'NONE',  ( 7.050000000000000711, 0.000000000000000000, 2.850000000000000089 ) ) ;
#258 = ORIENTED_EDGE ( 'NONE', *, *, #204, .T. ) ;
#259 = DIRECTION ( 'NONE',  ( 0.000000000000000000, 0.000000000000000000, -1.000000000000000000 ) ) ;
#260 = EDGE_LOOP ( 'NONE', ( #99 ) ) ;
#261 = DIRECTION ( 'NONE',  ( 0.000000000000000000, 0.000000000000000000, 1.000000000000000000 ) ) ;
#262 = CARTESIAN_POINT ( 'NONE',  ( -8.500000000000000000, 0.000000000000000000, 0.000000000000000000 ) ) ;
#263 = ADVANCED_FACE ( 'NONE', ( #37 ), #132, .F. ) ;
#264 = FACE_OUTER_BOUND ( 'NONE', #4, .T. ) ;
#265 = CARTESIAN_POINT ( 'NONE',  ( -7.050000000000000711, 2.849999999999998312, 0.000000000000000000 ) ) ;
#266 = DIRECTION ( 'NONE',  ( -1.000000000000000000, -0.000000000000000000, -0.000000000000000000 ) ) ;
#267 = PRESENTATION_LAYER_ASSIGNMENT (  '', '', ( #143 ) ) ;
#268 = DIRECTION ( 'NONE',  ( 0.000000000000000000, 0.000000000000000000, 1.000000000000000000 ) ) ;
#269 = EDGE_LOOP ( 'NONE', ( #270 ) ) ;
#270 = ORIENTED_EDGE ( 'NONE', *, *, #197, .T. ) ;
#271 = DIRECTION ( 'NONE',  ( 0.000000000000000000, 0.000000000000000000, 1.000000000000000000 ) ) ;
#272 = MECHANICAL_DESIGN_GEOMETRIC_PRESENTATION_REPRESENTATION (  '', ( #31 ), #286 ) ;
#273 = AXIS2_PLACEMENT_3D ( 'NONE', #177, #82, #275 ) ;
#274 = ORIENTED_EDGE ( 'NONE', *, *, #154, .T. ) ;
#275 = DIRECTION ( 'NONE',  ( 0.000000000000000000, 0.000000000000000000, 1.000000000000000000 ) ) ;
#276 = APPLICATION_CONTEXT ( 'automotive_design' ) ;
#277 = CARTESIAN_POINT ( 'NONE',  ( 8.000000000000000000, 0.000000000000000000, 3.000000000000000444 ) ) ;
#278 = CIRCLE ( 'NONE', #273, 2.849999999999998312 ) ;
#279 = CARTESIAN_POINT ( 'NONE',  ( -8.500000000000000000, 0.000000000000000000, 0.000000000000000000 ) ) ;
#280 = EDGE_LOOP ( 'NONE', ( #89 ) ) ;
#281 = CARTESIAN_POINT ( 'NONE',  ( -8.000000000000000000, 0.000000000000000000, 0.000000000000000000 ) ) ;
#282 = ORIENTED_EDGE ( 'NONE', *, *, #154, .F. ) ;
#283 = PRESENTATION_STYLE_ASSIGNMENT (( #169 ) ) ;
#284 = ADVANCED_FACE ( 'NONE', ( #294, #88 ), #222, .F. ) ;
#285 = DIRECTION ( 'NONE',  ( -1.000000000000000000, -0.000000000000000000, -0.000000000000000000 ) ) ;
#286 =( GEOMETRIC_REPRESENTATION_CONTEXT ( 3 ) GLOBAL_UNCERTAINTY_ASSIGNED_CONTEXT ( ( #298 ) ) GLOBAL_UNIT_ASSIGNED_CONTEXT ( ( #239, #186, #188 ) ) REPRESENTATION_CONTEXT ( 'NONE', 'WORKASPACE' ) );
#287 = FILL_AREA_STYLE ('',( #79 ) ) ;
#288 = DIRECTION ( 'NONE',  ( -1.000000000000000000, 0.000000000000000000, -0.000000000000000000 ) ) ;
#289 = DIRECTION ( 'NONE',  ( -1.000000000000000000, -0.000000000000000000, -0.000000000000000000 ) ) ;
#290 = CARTESIAN_POINT ( 'NONE',  ( 7.050000000000000711, 0.000000000000000000, 0.000000000000000000 ) ) ;
#291 = ADVANCED_FACE ( 'NONE', ( #95, #162 ), #221, .T. ) ;
#292 =( GEOMETRIC_REPRESENTATION_CONTEXT ( 3 ) GLOBAL_UNCERTAINTY_ASSIGNED_CONTEXT ( ( #137 ) ) GLOBAL_UNIT_ASSIGNED_CONTEXT ( ( #116, #199, #1 ) ) REPRESENTATION_CONTEXT ( 'NONE', 'WORKASPACE' ) );
#293 = PRODUCT ( '76.04.06.0001', '76.04.06.0001', '', ( #157 ) ) ;
#294 = FACE_BOUND ( 'NONE', #280, .T. ) ;
#295 = ADVANCED_FACE ( 'NONE', ( #181, #117 ), #183, .T. ) ;
#296 = DIRECTION ( 'NONE',  ( -1.000000000000000000, -0.000000000000000000, -0.000000000000000000 ) ) ;
#297 = CIRCLE ( 'NONE', #81, 3.000000000000000444 ) ;
#298 = UNCERTAINTY_MEASURE_WITH_UNIT (LENGTH_MEASURE( 1.000000000000000082E-05 ), #239, 'distance_accuracy_value', 'NONE');
#299 = SURFACE_STYLE_USAGE ( .BOTH. , #179 ) ;
#300 = VERTEX_POINT ( 'NONE', #138 ) ;
ENDSEC;
END-ISO-10303-21;
