ISO-10303-21;
HEADER;
FILE_DESCRIPTION (( 'STEP AP214' ),
    '1' );
FILE_NAME ('76.04.05.0007.step',
    '2021-04-02T18:04:54',
    ( '' ),
    ( '' ),
    'SwSTEP 2.0',
    'SolidWorks 2021',
    '' );
FILE_SCHEMA (( 'AUTOMOTIVE_DESIGN' ));
ENDSEC;

DATA;
#1 = CYLINDRICAL_SURFACE ( 'NONE', #159, 14.00000000000000178 ) ;
#2 = EDGE_LOOP ( 'NONE', ( #179 ) ) ;
#3 = DIRECTION ( 'NONE',  ( 0.000000000000000000, 0.000000000000000000, 1.000000000000000000 ) ) ;
#4 = FACE_OUTER_BOUND ( 'NONE', #243, .T. ) ;
#5 = ADVANCED_BREP_SHAPE_REPRESENTATION ( '76.04.05.0007', ( #237, #56 ), #171 ) ;
#6 = MECHANICAL_DESIGN_GEOMETRIC_PRESENTATION_REPRESENTATION (  '', ( #145 ), #173 ) ;
#7 = CARTESIAN_POINT ( 'NONE',  ( 46.00000000000000000, 0.000000000000000000, 0.000000000000000000 ) ) ;
#8 = AXIS2_PLACEMENT_3D ( 'NONE', #21, #246, #3 ) ;
#9 =( NAMED_UNIT ( * ) PLANE_ANGLE_UNIT ( ) SI_UNIT ( $, .RADIAN. ) );
#10 = CARTESIAN_POINT ( 'NONE',  ( -2.168404344971008868E-16, 0.000000000000000000, 9.133974596215555408 ) ) ;
#11 = VERTEX_POINT ( 'NONE', #33 ) ;
#12 = CONICAL_SURFACE ( 'NONE', #252, 9.999999999999996447, 0.5235987755983001479 ) ;
#13 = ADVANCED_FACE ( 'NONE', ( #197 ), #247, .F. ) ;
#14 = EDGE_LOOP ( 'NONE', ( #120 ) ) ;
#15 = PRODUCT_DEFINITION_SHAPE ( 'NONE', 'NONE',  #108 ) ;
#16 = STYLED_ITEM ( 'NONE', ( #55 ), #237 ) ;
#17 = FACE_OUTER_BOUND ( 'NONE', #155, .T. ) ;
#18 = ORIENTED_EDGE ( 'NONE', *, *, #245, .T. ) ;
#19 = DIRECTION ( 'NONE',  ( -0.000000000000000000, 0.000000000000000000, 1.000000000000000000 ) ) ;
#20 = EDGE_LOOP ( 'NONE', ( #256 ) ) ;
#21 = CARTESIAN_POINT ( 'NONE',  ( 1.499999999999999556, 0.000000000000000000, 0.000000000000000000 ) ) ;
#22 = CIRCLE ( 'NONE', #219, 8.750000000000000000 ) ;
#23 = EDGE_LOOP ( 'NONE', ( #39 ) ) ;
#24 = UNCERTAINTY_MEASURE_WITH_UNIT (LENGTH_MEASURE( 1.000000000000000082E-05 ), #34, 'distance_accuracy_value', 'NONE');
#25 = DIRECTION ( 'NONE',  ( 0.000000000000000000, 0.000000000000000000, 1.000000000000000000 ) ) ;
#26 = FACE_BOUND ( 'NONE', #221, .T. ) ;
#27 = DIRECTION ( 'NONE',  ( 0.000000000000000000, 0.000000000000000000, -1.000000000000000000 ) ) ;
#28 = ADVANCED_FACE ( 'NONE', ( #209, #185 ), #170, .T. ) ;
#29 = DIRECTION ( 'NONE',  ( -1.000000000000000000, 0.000000000000000000, -0.000000000000000000 ) ) ;
#30 =( LENGTH_UNIT ( ) NAMED_UNIT ( * ) SI_UNIT ( .MILLI., .METRE. ) );
#31 = AXIS2_PLACEMENT_3D ( 'NONE', #198, #136, #103 ) ;
#32 = FACE_BOUND ( 'NONE', #82, .T. ) ;
#33 = CARTESIAN_POINT ( 'NONE',  ( 5.499999999999998224, 0.000000000000000000, 8.750000000000000000 ) ) ;
#34 =( LENGTH_UNIT ( ) NAMED_UNIT ( * ) SI_UNIT ( .MILLI., .METRE. ) );
#35 =( NAMED_UNIT ( * ) SI_UNIT ( $, .STERADIAN. ) SOLID_ANGLE_UNIT ( ) );
#36 = ADVANCED_FACE ( 'NONE', ( #26, #207 ), #12, .T. ) ;
#37 = UNCERTAINTY_MEASURE_WITH_UNIT (LENGTH_MEASURE( 1.000000000000000082E-05 ), #30, 'distance_accuracy_value', 'NONE');
#38 = AXIS2_PLACEMENT_3D ( 'NONE', #7, #65, #249 ) ;
#39 = ORIENTED_EDGE ( 'NONE', *, *, #180, .T. ) ;
#40 = CYLINDRICAL_SURFACE ( 'NONE', #242, 9.999999999999998224 ) ;
#41 = ADVANCED_FACE ( 'NONE', ( #32, #228 ), #187, .F. ) ;
#42 = DIRECTION ( 'NONE',  ( 0.000000000000000000, 0.000000000000000000, 1.000000000000000000 ) ) ;
#43 = DIRECTION ( 'NONE',  ( -1.000000000000000000, -0.000000000000000000, -0.000000000000000000 ) ) ;
#44 = DIRECTION ( 'NONE',  ( 0.000000000000000000, 0.000000000000000000, 1.000000000000000000 ) ) ;
#45 = DIRECTION ( 'NONE',  ( -1.000000000000000000, -0.000000000000000000, -0.000000000000000000 ) ) ;
#46 = CARTESIAN_POINT ( 'NONE',  ( 3.699999999999997957, 0.000000000000000000, 9.999999999999996447 ) ) ;
#47 = DIRECTION ( 'NONE',  ( 0.000000000000000000, 0.000000000000000000, 1.000000000000000000 ) ) ;
#48 = PRESENTATION_STYLE_ASSIGNMENT (( #250 ) ) ;
#49 = CIRCLE ( 'NONE', #254, 14.00000000000000178 ) ;
#50 = VERTEX_POINT ( 'NONE', #10 ) ;
#51 = VERTEX_POINT ( 'NONE', #149 ) ;
#52 = AXIS2_PLACEMENT_3D ( 'NONE', #143, #104, #141 ) ;
#53 = AXIS2_PLACEMENT_3D ( 'NONE', #206, #241, #25 ) ;
#54 = ORIENTED_EDGE ( 'NONE', *, *, #238, .F. ) ;
#55 = PRESENTATION_STYLE_ASSIGNMENT (( #239 ) ) ;
#56 = AXIS2_PLACEMENT_3D ( 'NONE', #153, #92, #152 ) ;
#57 = EDGE_LOOP ( 'NONE', ( #240 ) ) ;
#58 = DIRECTION ( 'NONE',  ( -1.000000000000000000, 0.000000000000000000, -0.000000000000000000 ) ) ;
#59 = ORIENTED_EDGE ( 'NONE', *, *, #130, .T. ) ;
#60 = DIRECTION ( 'NONE',  ( 0.000000000000000000, 0.000000000000000000, 1.000000000000000000 ) ) ;
#61 = EDGE_LOOP ( 'NONE', ( #54 ) ) ;
#62 = DIRECTION ( 'NONE',  ( -1.000000000000000000, -0.000000000000000000, -0.000000000000000000 ) ) ;
#63 = ORIENTED_EDGE ( 'NONE', *, *, #94, .F. ) ;
#64 = DIRECTION ( 'NONE',  ( 0.000000000000000000, 0.000000000000000000, 1.000000000000000000 ) ) ;
#65 = DIRECTION ( 'NONE',  ( -1.000000000000000000, -0.000000000000000000, -0.000000000000000000 ) ) ;
#66 = CARTESIAN_POINT ( 'NONE',  ( 1.499999999999999556, 0.000000000000000000, 9.999999999999996447 ) ) ;
#67 = DIRECTION ( 'NONE',  ( 1.000000000000000000, 0.000000000000000000, 0.000000000000000000 ) ) ;
#68 = VERTEX_POINT ( 'NONE', #88 ) ;
#69 = DIRECTION ( 'NONE',  ( 0.000000000000000000, 0.000000000000000000, 1.000000000000000000 ) ) ;
#70 =( NAMED_UNIT ( * ) PLANE_ANGLE_UNIT ( ) SI_UNIT ( $, .RADIAN. ) );
#71 = AXIS2_PLACEMENT_3D ( 'NONE', #177, #148, #189 ) ;
#72 = ADVANCED_FACE ( 'NONE', ( #4 ), #84, .F. ) ;
#73 = CIRCLE ( 'NONE', #125, 9.999999999999996447 ) ;
#74 = ORIENTED_EDGE ( 'NONE', *, *, #110, .T. ) ;
#75 = CYLINDRICAL_SURFACE ( 'NONE', #212, 9.999999999999996447 ) ;
#76 = EDGE_LOOP ( 'NONE', ( #134 ) ) ;
#77 = FACE_BOUND ( 'NONE', #76, .T. ) ;
#78 = ORIENTED_EDGE ( 'NONE', *, *, #205, .T. ) ;
#79 = DIRECTION ( 'NONE',  ( -1.000000000000000000, -0.000000000000000000, -0.000000000000000000 ) ) ;
#80 = EDGE_LOOP ( 'NONE', ( #226 ) ) ;
#81 = FACE_OUTER_BOUND ( 'NONE', #176, .T. ) ;
#82 = EDGE_LOOP ( 'NONE', ( #137 ) ) ;
#83 = FACE_OUTER_BOUND ( 'NONE', #93, .T. ) ;
#84 = PLANE ( 'NONE',  #99 ) ;
#85 = APPLICATION_PROTOCOL_DEFINITION ( 'draft international standard', 'automotive_design', 1998, #89 ) ;
#86 = FACE_BOUND ( 'NONE', #158, .T. ) ;
#87 = CARTESIAN_POINT ( 'NONE',  ( 48.00000000000000000, 0.000000000000000000, 14.00000000000000178 ) ) ;
#88 = CARTESIAN_POINT ( 'NONE',  ( 3.699999999999997957, 0.000000000000000000, 8.750000000000000000 ) ) ;
#89 = APPLICATION_CONTEXT ( 'automotive_design' ) ;
#90 = DIRECTION ( 'NONE',  ( -1.000000000000000000, -0.000000000000000000, -0.000000000000000000 ) ) ;
#91 = AXIS2_PLACEMENT_3D ( 'NONE', #200, #178, #27 ) ;
#92 = DIRECTION ( 'NONE',  ( 0.000000000000000000, 0.000000000000000000, 1.000000000000000000 ) ) ;
#93 = EDGE_LOOP ( 'NONE', ( #59 ) ) ;
#94 = EDGE_CURVE ( 'NONE', #214, #214, #132, .T. ) ;
#95 = DIRECTION ( 'NONE',  ( -1.000000000000000000, -0.000000000000000000, -0.000000000000000000 ) ) ;
#96 = EDGE_LOOP ( 'NONE', ( #163 ) ) ;
#97 = FILL_AREA_STYLE_COLOUR ( '', #126 ) ;
#98 = EDGE_LOOP ( 'NONE', ( #204 ) ) ;
#99 = AXIS2_PLACEMENT_3D ( 'NONE', #105, #29, #165 ) ;
#100 = ADVANCED_FACE ( 'NONE', ( #230, #86 ), #181, .F. ) ;
#101 = CARTESIAN_POINT ( 'NONE',  ( 48.00000000000000000, 0.000000000000000000, 0.000000000000000000 ) ) ;
#102 = ORIENTED_EDGE ( 'NONE', *, *, #142, .T. ) ;
#103 = DIRECTION ( 'NONE',  ( 0.000000000000000000, 0.000000000000000000, 1.000000000000000000 ) ) ;
#104 = DIRECTION ( 'NONE',  ( 1.000000000000000000, 0.000000000000000000, 0.000000000000000000 ) ) ;
#105 = CARTESIAN_POINT ( 'NONE',  ( 50.00000000000000000, 0.000000000000000000, 0.000000000000000000 ) ) ;
#106 = CIRCLE ( 'NONE', #31, 9.999999999999994671 ) ;
#107 = AXIS2_PLACEMENT_3D ( 'NONE', #157, #117, #42 ) ;
#108 = PRODUCT_DEFINITION ( 'UNKNOWN', '', #202, #235 ) ;
#109 = CARTESIAN_POINT ( 'NONE',  ( 46.00000000000000000, 0.000000000000000000, 14.00000000000000000 ) ) ;
#110 = EDGE_CURVE ( 'NONE', #68, #68, #22, .T. ) ;
#111 =( NAMED_UNIT ( * ) SI_UNIT ( $, .STERADIAN. ) SOLID_ANGLE_UNIT ( ) );
#112 =( NAMED_UNIT ( * ) SI_UNIT ( $, .STERADIAN. ) SOLID_ANGLE_UNIT ( ) );
#113 = EDGE_LOOP ( 'NONE', ( #78 ) ) ;
#114 = CIRCLE ( 'NONE', #71, 8.750000000000000000 ) ;
#115 = CARTESIAN_POINT ( 'NONE',  ( 0.000000000000000000, 0.000000000000000000, 0.000000000000000000 ) ) ;
#116 = ORIENTED_EDGE ( 'NONE', *, *, #130, .F. ) ;
#117 = DIRECTION ( 'NONE',  ( -1.000000000000000000, -0.000000000000000000, -0.000000000000000000 ) ) ;
#118 = DIRECTION ( 'NONE',  ( 1.000000000000000000, 0.000000000000000000, 0.000000000000000000 ) ) ;
#119 = CARTESIAN_POINT ( 'NONE',  ( 3.699999999999997957, 0.000000000000000000, 0.000000000000000000 ) ) ;
#120 = ORIENTED_EDGE ( 'NONE', *, *, #238, .T. ) ;
#121 = FACE_OUTER_BOUND ( 'NONE', #23, .T. ) ;
#122 = CARTESIAN_POINT ( 'NONE',  ( 1.499999999999999556, 0.000000000000000000, 0.000000000000000000 ) ) ;
#123 = PRODUCT_RELATED_PRODUCT_CATEGORY ( 'part', '', ( #188 ) ) ;
#124 = DIRECTION ( 'NONE',  ( 0.000000000000000000, 0.000000000000000000, -1.000000000000000000 ) ) ;
#125 = AXIS2_PLACEMENT_3D ( 'NONE', #160, #79, #244 ) ;
#126 = COLOUR_RGB ( '',0.7764705882352941346, 0.7568627450980391913, 0.7372549019607843590 ) ;
#127 =( NAMED_UNIT ( * ) PLANE_ANGLE_UNIT ( ) SI_UNIT ( $, .RADIAN. ) );
#128 = PRODUCT_CONTEXT ( 'NONE', #201, 'mechanical' ) ;
#129 = AXIS2_PLACEMENT_3D ( 'NONE', #139, #225, #64 ) ;
#130 = EDGE_CURVE ( 'NONE', #51, #51, #106, .T. ) ;
#131 = CIRCLE ( 'NONE', #255, 9.133974596215555408 ) ;
#132 = CIRCLE ( 'NONE', #38, 14.00000000000000000 ) ;
#133 = SURFACE_STYLE_FILL_AREA ( #257 ) ;
#134 = ORIENTED_EDGE ( 'NONE', *, *, #217, .T. ) ;
#135 = CIRCLE ( 'NONE', #107, 10.00000000000000178 ) ;
#136 = DIRECTION ( 'NONE',  ( -1.000000000000000000, -0.000000000000000000, -0.000000000000000000 ) ) ;
#137 = ORIENTED_EDGE ( 'NONE', *, *, #194, .F. ) ;
#138 = DIRECTION ( 'NONE',  ( -1.000000000000000000, -0.000000000000000000, -0.000000000000000000 ) ) ;
#139 = CARTESIAN_POINT ( 'NONE',  ( 50.00000000000000000, 0.000000000000000000, 0.000000000000000000 ) ) ;
#140 = DIRECTION ( 'NONE',  ( 0.000000000000000000, 0.000000000000000000, 1.000000000000000000 ) ) ;
#141 = DIRECTION ( 'NONE',  ( 0.000000000000000000, 0.000000000000000000, -1.000000000000000000 ) ) ;
#142 = EDGE_CURVE ( 'NONE', #229, #229, #73, .T. ) ;
#143 = CARTESIAN_POINT ( 'NONE',  ( 46.00000000000000000, 14.00000000000000000, 0.000000000000000000 ) ) ;
#144 = VERTEX_POINT ( 'NONE', #87 ) ;
#145 = STYLED_ITEM ( 'NONE', ( #48 ), #5 ) ;
#146 = FILL_AREA_STYLE_COLOUR ( '', #191 ) ;
#147 = ADVANCED_FACE ( 'NONE', ( #248, #121 ), #1, .T. ) ;
#148 = DIRECTION ( 'NONE',  ( -1.000000000000000000, -0.000000000000000000, -0.000000000000000000 ) ) ;
#149 = CARTESIAN_POINT ( 'NONE',  ( 5.499999999999998224, 0.000000000000000000, 9.999999999999994671 ) ) ;
#150 = AXIS2_PLACEMENT_3D ( 'NONE', #223, #118, #211 ) ;
#151 = CIRCLE ( 'NONE', #8, 9.999999999999996447 ) ;
#152 = DIRECTION ( 'NONE',  ( 1.000000000000000000, 0.000000000000000000, 0.000000000000000000 ) ) ;
#153 = CARTESIAN_POINT ( 'NONE',  ( 0.000000000000000000, 0.000000000000000000, 0.000000000000000000 ) ) ;
#154 = CLOSED_SHELL ( 'NONE', ( #72, #218, #147, #41, #174, #232, #28, #100, #199, #36, #13 ) ) ;
#155 = EDGE_LOOP ( 'NONE', ( #102 ) ) ;
#156 = DIRECTION ( 'NONE',  ( 0.000000000000000000, 0.000000000000000000, 1.000000000000000000 ) ) ;
#157 = CARTESIAN_POINT ( 'NONE',  ( 46.00000000000000000, 0.000000000000000000, 0.000000000000000000 ) ) ;
#158 = EDGE_LOOP ( 'NONE', ( #74 ) ) ;
#159 = AXIS2_PLACEMENT_3D ( 'NONE', #224, #62, #140 ) ;
#160 = CARTESIAN_POINT ( 'NONE',  ( 3.699999999999997957, 0.000000000000000000, 0.000000000000000000 ) ) ;
#161 = ORIENTED_EDGE ( 'NONE', *, *, #245, .F. ) ;
#162 = CARTESIAN_POINT ( 'NONE',  ( 0.000000000000000000, 0.000000000000000000, 0.000000000000000000 ) ) ;
#163 = ORIENTED_EDGE ( 'NONE', *, *, #180, .F. ) ;
#164 = DIRECTION ( 'NONE',  ( 0.000000000000000000, 0.000000000000000000, 1.000000000000000000 ) ) ;
#165 = DIRECTION ( 'NONE',  ( -0.000000000000000000, 0.000000000000000000, 1.000000000000000000 ) ) ;
#166 = UNCERTAINTY_MEASURE_WITH_UNIT (LENGTH_MEASURE( 1.000000000000000082E-05 ), #216, 'distance_accuracy_value', 'NONE');
#167 = AXIS2_PLACEMENT_3D ( 'NONE', #251, #45, #47 ) ;
#168 = CONICAL_SURFACE ( 'NONE', #53, 12.00000000000001243, 0.7853981633974452814 ) ;
#169 = SURFACE_STYLE_FILL_AREA ( #215 ) ;
#170 = CYLINDRICAL_SURFACE ( 'NONE', #167, 8.750000000000000000 ) ;
#171 =( GEOMETRIC_REPRESENTATION_CONTEXT ( 3 ) GLOBAL_UNCERTAINTY_ASSIGNED_CONTEXT ( ( #166 ) ) GLOBAL_UNIT_ASSIGNED_CONTEXT ( ( #216, #9, #111 ) ) REPRESENTATION_CONTEXT ( 'NONE', 'WORKASPACE' ) );
#172 = CARTESIAN_POINT ( 'NONE',  ( 46.00000000000000000, 0.000000000000000000, 10.00000000000000178 ) ) ;
#173 =( GEOMETRIC_REPRESENTATION_CONTEXT ( 3 ) GLOBAL_UNCERTAINTY_ASSIGNED_CONTEXT ( ( #37 ) ) GLOBAL_UNIT_ASSIGNED_CONTEXT ( ( #30, #70, #112 ) ) REPRESENTATION_CONTEXT ( 'NONE', 'WORKASPACE' ) );
#174 = ADVANCED_FACE ( 'NONE', ( #81, #227 ), #40, .T. ) ;
#175 = CIRCLE ( 'NONE', #129, 12.00000000000001243 ) ;
#176 = EDGE_LOOP ( 'NONE', ( #116 ) ) ;
#177 = CARTESIAN_POINT ( 'NONE',  ( 5.499999999999998224, 0.000000000000000000, 0.000000000000000000 ) ) ;
#178 = DIRECTION ( 'NONE',  ( 1.000000000000000000, 0.000000000000000000, 0.000000000000000000 ) ) ;
#179 = ORIENTED_EDGE ( 'NONE', *, *, #94, .T. ) ;
#180 = EDGE_CURVE ( 'NONE', #144, #144, #49, .T. ) ;
#181 = PLANE ( 'NONE',  #195 ) ;
#182 = CARTESIAN_POINT ( 'NONE',  ( 3.699999999999997957, 9.999999999999996447, 0.000000000000000000 ) ) ;
#183 = ORIENTED_EDGE ( 'NONE', *, *, #217, .F. ) ;
#184 = FACE_BOUND ( 'NONE', #61, .T. ) ;
#185 = FACE_OUTER_BOUND ( 'NONE', #14, .T. ) ;
#186 = CARTESIAN_POINT ( 'NONE',  ( -2.168404344971008868E-16, 0.000000000000000000, 0.000000000000000000 ) ) ;
#187 = PLANE ( 'NONE',  #52 ) ;
#188 = PRODUCT ( '76.04.05.0007', '76.04.05.0007', '', ( #128 ) ) ;
#189 = DIRECTION ( 'NONE',  ( 0.000000000000000000, 0.000000000000000000, 1.000000000000000000 ) ) ;
#190 = VERTEX_POINT ( 'NONE', #172 ) ;
#191 = COLOUR_RGB ( '',0.7764705882352941346, 0.7568627450980391913, 0.7372549019607843590 ) ;
#192 = PRESENTATION_LAYER_ASSIGNMENT (  '', '', ( #145 ) ) ;
#193 = SURFACE_SIDE_STYLE ('',( #169 ) ) ;
#194 = EDGE_CURVE ( 'NONE', #190, #190, #135, .T. ) ;
#195 = AXIS2_PLACEMENT_3D ( 'NONE', #182, #58, #19 ) ;
#196 = MECHANICAL_DESIGN_GEOMETRIC_PRESENTATION_REPRESENTATION (  '', ( #16 ), #234 ) ;
#197 = FACE_OUTER_BOUND ( 'NONE', #236, .T. ) ;
#198 = CARTESIAN_POINT ( 'NONE',  ( 5.499999999999998224, 0.000000000000000000, 0.000000000000000000 ) ) ;
#199 = ADVANCED_FACE ( 'NONE', ( #203, #17 ), #75, .T. ) ;
#200 = CARTESIAN_POINT ( 'NONE',  ( 5.499999999999998224, 8.750000000000000000, 0.000000000000000000 ) ) ;
#201 = APPLICATION_CONTEXT ( 'automotive_design' ) ;
#202 = PRODUCT_DEFINITION_FORMATION_WITH_SPECIFIED_SOURCE ( 'ANY', '', #188, .NOT_KNOWN. ) ;
#203 = FACE_OUTER_BOUND ( 'NONE', #80, .T. ) ;
#204 = ORIENTED_EDGE ( 'NONE', *, *, #110, .F. ) ;
#205 = EDGE_CURVE ( 'NONE', #231, #231, #151, .T. ) ;
#206 = CARTESIAN_POINT ( 'NONE',  ( 50.00000000000000000, 0.000000000000000000, 0.000000000000000000 ) ) ;
#207 = FACE_OUTER_BOUND ( 'NONE', #113, .T. ) ;
#208 = PLANE ( 'NONE',  #91 ) ;
#209 = FACE_OUTER_BOUND ( 'NONE', #98, .T. ) ;
#210 = APPLICATION_PROTOCOL_DEFINITION ( 'draft international standard', 'automotive_design', 1998, #201 ) ;
#211 = DIRECTION ( 'NONE',  ( 0.000000000000000000, 0.000000000000000000, -1.000000000000000000 ) ) ;
#212 = AXIS2_PLACEMENT_3D ( 'NONE', #162, #95, #44 ) ;
#213 = VERTEX_POINT ( 'NONE', #233 ) ;
#214 = VERTEX_POINT ( 'NONE', #109 ) ;
#215 = FILL_AREA_STYLE ('',( #146 ) ) ;
#216 =( LENGTH_UNIT ( ) NAMED_UNIT ( * ) SI_UNIT ( .MILLI., .METRE. ) );
#217 = EDGE_CURVE ( 'NONE', #213, #213, #175, .T. ) ;
#218 = ADVANCED_FACE ( 'NONE', ( #260, #77 ), #168, .T. ) ;
#219 = AXIS2_PLACEMENT_3D ( 'NONE', #119, #138, #164 ) ;
#220 = PRESENTATION_LAYER_ASSIGNMENT (  '', '', ( #16 ) ) ;
#221 = EDGE_LOOP ( 'NONE', ( #161 ) ) ;
#222 = DIRECTION ( 'NONE',  ( -1.000000000000000000, -0.000000000000000000, -0.000000000000000000 ) ) ;
#223 = CARTESIAN_POINT ( 'NONE',  ( -1.084202172485504434E-16, 9.133974596215555408, 0.000000000000000000 ) ) ;
#224 = CARTESIAN_POINT ( 'NONE',  ( 0.000000000000000000, 0.000000000000000000, 0.000000000000000000 ) ) ;
#225 = DIRECTION ( 'NONE',  ( -1.000000000000000000, -0.000000000000000000, -0.000000000000000000 ) ) ;
#226 = ORIENTED_EDGE ( 'NONE', *, *, #205, .F. ) ;
#227 = FACE_OUTER_BOUND ( 'NONE', #57, .T. ) ;
#228 = FACE_OUTER_BOUND ( 'NONE', #2, .T. ) ;
#229 = VERTEX_POINT ( 'NONE', #46 ) ;
#230 = FACE_OUTER_BOUND ( 'NONE', #20, .T. ) ;
#231 = VERTEX_POINT ( 'NONE', #66 ) ;
#232 = ADVANCED_FACE ( 'NONE', ( #184, #83 ), #208, .F. ) ;
#233 = CARTESIAN_POINT ( 'NONE',  ( 50.00000000000000000, 0.000000000000000000, 12.00000000000001243 ) ) ;
#234 =( GEOMETRIC_REPRESENTATION_CONTEXT ( 3 ) GLOBAL_UNCERTAINTY_ASSIGNED_CONTEXT ( ( #24 ) ) GLOBAL_UNIT_ASSIGNED_CONTEXT ( ( #34, #127, #35 ) ) REPRESENTATION_CONTEXT ( 'NONE', 'WORKASPACE' ) );
#235 = PRODUCT_DEFINITION_CONTEXT ( 'detailed design', #89, 'design' ) ;
#236 = EDGE_LOOP ( 'NONE', ( #18 ) ) ;
#237 = MANIFOLD_SOLID_BREP ( 'Revolve2', #154 ) ;
#238 = EDGE_CURVE ( 'NONE', #11, #11, #114, .T. ) ;
#239 = SURFACE_STYLE_USAGE ( .BOTH. , #259 ) ;
#240 = ORIENTED_EDGE ( 'NONE', *, *, #194, .T. ) ;
#241 = DIRECTION ( 'NONE',  ( -1.000000000000000000, -0.000000000000000000, -0.000000000000000000 ) ) ;
#242 = AXIS2_PLACEMENT_3D ( 'NONE', #115, #43, #60 ) ;
#243 = EDGE_LOOP ( 'NONE', ( #183 ) ) ;
#244 = DIRECTION ( 'NONE',  ( 0.000000000000000000, 0.000000000000000000, 1.000000000000000000 ) ) ;
#245 = EDGE_CURVE ( 'NONE', #50, #50, #131, .T. ) ;
#246 = DIRECTION ( 'NONE',  ( -1.000000000000000000, -0.000000000000000000, -0.000000000000000000 ) ) ;
#247 = PLANE ( 'NONE',  #150 ) ;
#248 = FACE_OUTER_BOUND ( 'NONE', #258, .T. ) ;
#249 = DIRECTION ( 'NONE',  ( 0.000000000000000000, 0.000000000000000000, 1.000000000000000000 ) ) ;
#250 = SURFACE_STYLE_USAGE ( .BOTH. , #193 ) ;
#251 = CARTESIAN_POINT ( 'NONE',  ( 0.000000000000000000, 0.000000000000000000, 0.000000000000000000 ) ) ;
#252 = AXIS2_PLACEMENT_3D ( 'NONE', #122, #67, #124 ) ;
#253 = SHAPE_DEFINITION_REPRESENTATION ( #15, #5 ) ;
#254 = AXIS2_PLACEMENT_3D ( 'NONE', #101, #222, #156 ) ;
#255 = AXIS2_PLACEMENT_3D ( 'NONE', #186, #90, #69 ) ;
#256 = ORIENTED_EDGE ( 'NONE', *, *, #142, .F. ) ;
#257 = FILL_AREA_STYLE ('',( #97 ) ) ;
#258 = EDGE_LOOP ( 'NONE', ( #63 ) ) ;
#259 = SURFACE_SIDE_STYLE ('',( #133 ) ) ;
#260 = FACE_OUTER_BOUND ( 'NONE', #96, .T. ) ;
ENDSEC;
END-ISO-10303-21;
