ISO-10303-21;
HEADER;
FILE_DESCRIPTION (( 'STEP AP214' ),
    '1' );
FILE_NAME ('76.04.05.0006.step',
    '2021-04-02T18:04:52',
    ( '' ),
    ( '' ),
    'SwSTEP 2.0',
    'SolidWorks 2021',
    '' );
FILE_SCHEMA (( 'AUTOMOTIVE_DESIGN' ));
ENDSEC;

DATA;
#1 = FACE_OUTER_BOUND ( 'NONE', #210, .T. ) ;
#2 = APPLICATION_PROTOCOL_DEFINITION ( 'draft international standard', 'automotive_design', 1998, #259 ) ;
#3 = FILL_AREA_STYLE ('',( #45 ) ) ;
#4 = CIRCLE ( 'NONE', #88, 6.000000000000000000 ) ;
#5 = EDGE_LOOP ( 'NONE', ( #50 ) ) ;
#6 = FACE_OUTER_BOUND ( 'NONE', #9, .T. ) ;
#7 = ORIENTED_EDGE ( 'NONE', *, *, #112, .F. ) ;
#8 = STYLED_ITEM ( 'NONE', ( #87 ), #66 ) ;
#9 = EDGE_LOOP ( 'NONE', ( #248 ) ) ;
#10 = CIRCLE ( 'NONE', #81, 7.999999999999996447 ) ;
#11 = ORIENTED_EDGE ( 'NONE', *, *, #216, .T. ) ;
#12 = FACE_OUTER_BOUND ( 'NONE', #28, .T. ) ;
#13 =( GEOMETRIC_REPRESENTATION_CONTEXT ( 3 ) GLOBAL_UNCERTAINTY_ASSIGNED_CONTEXT ( ( #200 ) ) GLOBAL_UNIT_ASSIGNED_CONTEXT ( ( #89, #203, #103 ) ) REPRESENTATION_CONTEXT ( 'NONE', 'WORKASPACE' ) );
#14 =( NAMED_UNIT ( * ) SI_UNIT ( $, .STERADIAN. ) SOLID_ANGLE_UNIT ( ) );
#15 = AXIS2_PLACEMENT_3D ( 'NONE', #135, #137, #186 ) ;
#16 = FACE_OUTER_BOUND ( 'NONE', #148, .T. ) ;
#17 = SURFACE_STYLE_USAGE ( .BOTH. , #94 ) ;
#18 = CARTESIAN_POINT ( 'NONE',  ( -2.057177616636541811E-16, 0.000000000000000000, 7.133974596215554520 ) ) ;
#19 = CIRCLE ( 'NONE', #52, 8.500000000000003553 ) ;
#20 = VERTEX_POINT ( 'NONE', #82 ) ;
#21 = DIRECTION ( 'NONE',  ( -1.000000000000000000, -0.000000000000000000, -0.000000000000000000 ) ) ;
#22 = DIRECTION ( 'NONE',  ( 0.000000000000000000, 0.000000000000000000, 1.000000000000000000 ) ) ;
#23 = VERTEX_POINT ( 'NONE', #39 ) ;
#24 = UNCERTAINTY_MEASURE_WITH_UNIT (LENGTH_MEASURE( 1.000000000000000082E-05 ), #233, 'distance_accuracy_value', 'NONE');
#25 = PRODUCT_CONTEXT ( 'NONE', #48, 'mechanical' ) ;
#26 = ORIENTED_EDGE ( 'NONE', *, *, #216, .F. ) ;
#27 = AXIS2_PLACEMENT_3D ( 'NONE', #193, #21, #22 ) ;
#28 = EDGE_LOOP ( 'NONE', ( #207 ) ) ;
#29 = ORIENTED_EDGE ( 'NONE', *, *, #171, .T. ) ;
#30 = ORIENTED_EDGE ( 'NONE', *, *, #229, .T. ) ;
#31 = EDGE_LOOP ( 'NONE', ( #11 ) ) ;
#32 = ADVANCED_FACE ( 'NONE', ( #92, #144 ), #192, .T. ) ;
#33 = FACE_OUTER_BOUND ( 'NONE', #31, .T. ) ;
#34 = PRESENTATION_LAYER_ASSIGNMENT (  '', '', ( #8 ) ) ;
#35 = FACE_OUTER_BOUND ( 'NONE', #106, .T. ) ;
#36 = PLANE ( 'NONE',  #126 ) ;
#37 = DIRECTION ( 'NONE',  ( -1.000000000000000000, -0.000000000000000000, -0.000000000000000000 ) ) ;
#38 = AXIS2_PLACEMENT_3D ( 'NONE', #118, #173, #176 ) ;
#39 = CARTESIAN_POINT ( 'NONE',  ( 38.50000000000000000, 0.000000000000000000, 8.000000000000001776 ) ) ;
#40 = ADVANCED_FACE ( 'NONE', ( #162, #6 ), #164, .F. ) ;
#41 = DIRECTION ( 'NONE',  ( 0.000000000000000000, 0.000000000000000000, 1.000000000000000000 ) ) ;
#42 = CARTESIAN_POINT ( 'NONE',  ( 4.649999999999997691, 0.000000000000000000, 0.000000000000000000 ) ) ;
#43 = DIRECTION ( 'NONE',  ( 0.000000000000000000, 0.000000000000000000, 1.000000000000000000 ) ) ;
#44 = EDGE_LOOP ( 'NONE', ( #26 ) ) ;
#45 = FILL_AREA_STYLE_COLOUR ( '', #249 ) ;
#46 = CIRCLE ( 'NONE', #131, 10.00000000000000000 ) ;
#47 = FILL_AREA_STYLE_COLOUR ( '', #214 ) ;
#48 = APPLICATION_CONTEXT ( 'automotive_design' ) ;
#49 = ORIENTED_EDGE ( 'NONE', *, *, #229, .F. ) ;
#50 = ORIENTED_EDGE ( 'NONE', *, *, #132, .F. ) ;
#51 = PLANE ( 'NONE',  #61 ) ;
#52 = AXIS2_PLACEMENT_3D ( 'NONE', #212, #111, #256 ) ;
#53 = DIRECTION ( 'NONE',  ( -1.000000000000000000, -0.000000000000000000, -0.000000000000000000 ) ) ;
#54 = FACE_OUTER_BOUND ( 'NONE', #226, .T. ) ;
#55 = FACE_BOUND ( 'NONE', #183, .T. ) ;
#56 = DIRECTION ( 'NONE',  ( 0.000000000000000000, 0.000000000000000000, -1.000000000000000000 ) ) ;
#57 = DIRECTION ( 'NONE',  ( 0.000000000000000000, 0.000000000000000000, 1.000000000000000000 ) ) ;
#58 = EDGE_CURVE ( 'NONE', #64, #64, #75, .T. ) ;
#59 = CARTESIAN_POINT ( 'NONE',  ( 4.649999999999997691, 0.000000000000000000, 7.999999999999996447 ) ) ;
#60 = PRODUCT_DEFINITION_CONTEXT ( 'detailed design', #259, 'design' ) ;
#61 = AXIS2_PLACEMENT_3D ( 'NONE', #113, #153, #254 ) ;
#62 = MANIFOLD_SOLID_BREP ( 'Revolve2', #147 ) ;
#63 = AXIS2_PLACEMENT_3D ( 'NONE', #42, #37, #41 ) ;
#64 = VERTEX_POINT ( 'NONE', #18 ) ;
#65 =( NAMED_UNIT ( * ) SI_UNIT ( $, .STERADIAN. ) SOLID_ANGLE_UNIT ( ) );
#66 = ADVANCED_BREP_SHAPE_REPRESENTATION ( '76.04.05.0006', ( #62, #114 ), #242 ) ;
#67 = SURFACE_SIDE_STYLE ('',( #143 ) ) ;
#68 = DIRECTION ( 'NONE',  ( -1.000000000000000000, -0.000000000000000000, -0.000000000000000000 ) ) ;
#69 = APPLICATION_PROTOCOL_DEFINITION ( 'draft international standard', 'automotive_design', 1998, #48 ) ;
#70 = DIRECTION ( 'NONE',  ( 0.000000000000000000, 0.000000000000000000, 1.000000000000000000 ) ) ;
#71 = ORIENTED_EDGE ( 'NONE', *, *, #58, .F. ) ;
#72 = DIRECTION ( 'NONE',  ( -1.000000000000000000, -0.000000000000000000, -0.000000000000000000 ) ) ;
#73 = ADVANCED_FACE ( 'NONE', ( #55, #35 ), #169, .T. ) ;
#74 = DIRECTION ( 'NONE',  ( 0.000000000000000000, 0.000000000000000000, 1.000000000000000000 ) ) ;
#75 = CIRCLE ( 'NONE', #241, 7.133974596215554520 ) ;
#76 = CYLINDRICAL_SURFACE ( 'NONE', #154, 10.00000000000000178 ) ;
#77 = ADVANCED_FACE ( 'NONE', ( #150 ), #51, .F. ) ;
#78 = DIRECTION ( 'NONE',  ( 0.000000000000000000, 0.000000000000000000, -1.000000000000000000 ) ) ;
#79 = FACE_BOUND ( 'NONE', #108, .T. ) ;
#80 = FACE_OUTER_BOUND ( 'NONE', #230, .T. ) ;
#81 = AXIS2_PLACEMENT_3D ( 'NONE', #213, #257, #110 ) ;
#82 = CARTESIAN_POINT ( 'NONE',  ( 5.999999999999998224, 0.000000000000000000, 6.000000000000000000 ) ) ;
#83 = FACE_OUTER_BOUND ( 'NONE', #107, .T. ) ;
#84 = DIRECTION ( 'NONE',  ( 0.000000000000000000, 0.000000000000000000, 1.000000000000000000 ) ) ;
#85 = VERTEX_POINT ( 'NONE', #159 ) ;
#86 = ADVANCED_FACE ( 'NONE', ( #54, #80 ), #76, .T. ) ;
#87 = PRESENTATION_STYLE_ASSIGNMENT (( #161 ) ) ;
#88 = AXIS2_PLACEMENT_3D ( 'NONE', #191, #231, #189 ) ;
#89 =( LENGTH_UNIT ( ) NAMED_UNIT ( * ) SI_UNIT ( .MILLI., .METRE. ) );
#90 = EDGE_LOOP ( 'NONE', ( #204 ) ) ;
#91 = EDGE_LOOP ( 'NONE', ( #7 ) ) ;
#92 = FACE_OUTER_BOUND ( 'NONE', #146, .T. ) ;
#93 = CARTESIAN_POINT ( 'NONE',  ( 0.000000000000000000, 0.000000000000000000, 0.000000000000000000 ) ) ;
#94 = SURFACE_SIDE_STYLE ('',( #168 ) ) ;
#95 = FACE_OUTER_BOUND ( 'NONE', #130, .T. ) ;
#96 = AXIS2_PLACEMENT_3D ( 'NONE', #177, #220, #57 ) ;
#97 = CARTESIAN_POINT ( 'NONE',  ( 38.50000000000000000, 0.000000000000000000, 0.000000000000000000 ) ) ;
#98 = VERTEX_POINT ( 'NONE', #195 ) ;
#99 = CARTESIAN_POINT ( 'NONE',  ( 5.999999999999998224, 0.000000000000000000, 7.999999999999996447 ) ) ;
#100 = EDGE_CURVE ( 'NONE', #174, #174, #205, .T. ) ;
#101 = CARTESIAN_POINT ( 'NONE',  ( 38.50000000000000000, 0.000000000000000000, 10.00000000000000000 ) ) ;
#102 = PRODUCT ( '76.04.05.0006', '76.04.05.0006', '', ( #25 ) ) ;
#103 =( NAMED_UNIT ( * ) SI_UNIT ( $, .STERADIAN. ) SOLID_ANGLE_UNIT ( ) );
#104 = MECHANICAL_DESIGN_GEOMETRIC_PRESENTATION_REPRESENTATION (  '', ( #184 ), #134 ) ;
#105 = CIRCLE ( 'NONE', #63, 6.000000000000000000 ) ;
#106 = EDGE_LOOP ( 'NONE', ( #208 ) ) ;
#107 = EDGE_LOOP ( 'NONE', ( #29 ) ) ;
#108 = EDGE_LOOP ( 'NONE', ( #109 ) ) ;
#109 = ORIENTED_EDGE ( 'NONE', *, *, #171, .F. ) ;
#110 = DIRECTION ( 'NONE',  ( 0.000000000000000000, 0.000000000000000000, 1.000000000000000000 ) ) ;
#111 = DIRECTION ( 'NONE',  ( -1.000000000000000000, -0.000000000000000000, -0.000000000000000000 ) ) ;
#112 = EDGE_CURVE ( 'NONE', #120, #120, #10, .T. ) ;
#113 = CARTESIAN_POINT ( 'NONE',  ( 42.00000000000000711, 0.000000000000000000, 0.000000000000000000 ) ) ;
#114 = AXIS2_PLACEMENT_3D ( 'NONE', #201, #43, #122 ) ;
#115 = CYLINDRICAL_SURFACE ( 'NONE', #232, 8.000000000000000000 ) ;
#116 = AXIS2_PLACEMENT_3D ( 'NONE', #93, #252, #74 ) ;
#117 = SHAPE_DEFINITION_REPRESENTATION ( #198, #66 ) ;
#118 = CARTESIAN_POINT ( 'NONE',  ( 5.999999999999998224, 0.000000000000000000, 0.000000000000000000 ) ) ;
#119 =( LENGTH_UNIT ( ) NAMED_UNIT ( * ) SI_UNIT ( .MILLI., .METRE. ) );
#120 = VERTEX_POINT ( 'NONE', #59 ) ;
#121 = VERTEX_POINT ( 'NONE', #99 ) ;
#122 = DIRECTION ( 'NONE',  ( 1.000000000000000000, 0.000000000000000000, 0.000000000000000000 ) ) ;
#123 = ORIENTED_EDGE ( 'NONE', *, *, #225, .T. ) ;
#124 = ORIENTED_EDGE ( 'NONE', *, *, #58, .T. ) ;
#125 = AXIS2_PLACEMENT_3D ( 'NONE', #152, #53, #170 ) ;
#126 = AXIS2_PLACEMENT_3D ( 'NONE', #238, #190, #56 ) ;
#127 = FILL_AREA_STYLE ('',( #47 ) ) ;
#128 = PRODUCT_DEFINITION ( 'UNKNOWN', '', #197, #60 ) ;
#129 = ORIENTED_EDGE ( 'NONE', *, *, #225, .F. ) ;
#130 = EDGE_LOOP ( 'NONE', ( #182 ) ) ;
#131 = AXIS2_PLACEMENT_3D ( 'NONE', #97, #167, #155 ) ;
#132 = EDGE_CURVE ( 'NONE', #23, #23, #224, .T. ) ;
#133 = DIRECTION ( 'NONE',  ( -1.000000000000000000, -0.000000000000000000, -0.000000000000000000 ) ) ;
#134 =( GEOMETRIC_REPRESENTATION_CONTEXT ( 3 ) GLOBAL_UNCERTAINTY_ASSIGNED_CONTEXT ( ( #24 ) ) GLOBAL_UNIT_ASSIGNED_CONTEXT ( ( #233, #172, #14 ) ) REPRESENTATION_CONTEXT ( 'NONE', 'WORKASPACE' ) );
#135 = CARTESIAN_POINT ( 'NONE',  ( 38.50000000000000000, 0.000000000000000000, 0.000000000000000000 ) ) ;
#136 = EDGE_CURVE ( 'NONE', #140, #140, #46, .T. ) ;
#137 = DIRECTION ( 'NONE',  ( -1.000000000000000000, -0.000000000000000000, -0.000000000000000000 ) ) ;
#138 = DIRECTION ( 'NONE',  ( -0.000000000000000000, 0.000000000000000000, 1.000000000000000000 ) ) ;
#139 = DIRECTION ( 'NONE',  ( -1.000000000000000000, 0.000000000000000000, -0.000000000000000000 ) ) ;
#140 = VERTEX_POINT ( 'NONE', #101 ) ;
#141 = FACE_BOUND ( 'NONE', #149, .T. ) ;
#142 = CARTESIAN_POINT ( 'NONE',  ( 38.50000000000000000, 10.00000000000000000, 0.000000000000000000 ) ) ;
#143 = SURFACE_STYLE_FILL_AREA ( #3 ) ;
#144 = FACE_BOUND ( 'NONE', #228, .T. ) ;
#145 = ADVANCED_FACE ( 'NONE', ( #79, #33 ), #36, .F. ) ;
#146 = EDGE_LOOP ( 'NONE', ( #129 ) ) ;
#147 = CLOSED_SHELL ( 'NONE', ( #77, #32, #86, #40, #209, #145, #194, #206, #188, #73, #234 ) ) ;
#148 = EDGE_LOOP ( 'NONE', ( #49 ) ) ;
#149 = EDGE_LOOP ( 'NONE', ( #30 ) ) ;
#150 = FACE_OUTER_BOUND ( 'NONE', #90, .T. ) ;
#151 = CIRCLE ( 'NONE', #38, 7.999999999999996447 ) ;
#152 = CARTESIAN_POINT ( 'NONE',  ( 1.499999999999999778, 0.000000000000000000, 0.000000000000000000 ) ) ;
#153 = DIRECTION ( 'NONE',  ( -1.000000000000000000, 0.000000000000000000, -0.000000000000000000 ) ) ;
#154 = AXIS2_PLACEMENT_3D ( 'NONE', #236, #133, #215 ) ;
#155 = DIRECTION ( 'NONE',  ( 0.000000000000000000, 0.000000000000000000, 1.000000000000000000 ) ) ;
#156 = UNCERTAINTY_MEASURE_WITH_UNIT (LENGTH_MEASURE( 1.000000000000000082E-05 ), #119, 'distance_accuracy_value', 'NONE');
#157 = DIRECTION ( 'NONE',  ( 1.000000000000000000, 0.000000000000000000, 0.000000000000000000 ) ) ;
#158 = CARTESIAN_POINT ( 'NONE',  ( 0.000000000000000000, 0.000000000000000000, 0.000000000000000000 ) ) ;
#159 = CARTESIAN_POINT ( 'NONE',  ( 4.649999999999997691, 0.000000000000000000, 6.000000000000000000 ) ) ;
#160 = ORIENTED_EDGE ( 'NONE', *, *, #132, .T. ) ;
#161 = SURFACE_STYLE_USAGE ( .BOTH. , #67 ) ;
#162 = FACE_BOUND ( 'NONE', #5, .T. ) ;
#163 = PRODUCT_RELATED_PRODUCT_CATEGORY ( 'part', '', ( #102 ) ) ;
#164 = PLANE ( 'NONE',  #180 ) ;
#165 = ORIENTED_EDGE ( 'NONE', *, *, #178, .T. ) ;
#166 = DIRECTION ( 'NONE',  ( 0.000000000000000000, 0.000000000000000000, 1.000000000000000000 ) ) ;
#167 = DIRECTION ( 'NONE',  ( -1.000000000000000000, -0.000000000000000000, -0.000000000000000000 ) ) ;
#168 = SURFACE_STYLE_FILL_AREA ( #127 ) ;
#169 = CONICAL_SURFACE ( 'NONE', #237, 7.999999999999996447, 0.5235987755983005920 ) ;
#170 = DIRECTION ( 'NONE',  ( 0.000000000000000000, 0.000000000000000000, 1.000000000000000000 ) ) ;
#171 = EDGE_CURVE ( 'NONE', #20, #20, #4, .T. ) ;
#172 =( NAMED_UNIT ( * ) PLANE_ANGLE_UNIT ( ) SI_UNIT ( $, .RADIAN. ) );
#173 = DIRECTION ( 'NONE',  ( -1.000000000000000000, -0.000000000000000000, -0.000000000000000000 ) ) ;
#174 = VERTEX_POINT ( 'NONE', #240 ) ;
#175 = VERTEX_POINT ( 'NONE', #221 ) ;
#176 = DIRECTION ( 'NONE',  ( 0.000000000000000000, 0.000000000000000000, 1.000000000000000000 ) ) ;
#177 = CARTESIAN_POINT ( 'NONE',  ( 0.000000000000000000, 0.000000000000000000, 0.000000000000000000 ) ) ;
#178 = EDGE_CURVE ( 'NONE', #98, #98, #19, .T. ) ;
#179 = ORIENTED_EDGE ( 'NONE', *, *, #136, .F. ) ;
#180 = AXIS2_PLACEMENT_3D ( 'NONE', #142, #251, #202 ) ;
#181 = CIRCLE ( 'NONE', #27, 10.00000000000000178 ) ;
#182 = ORIENTED_EDGE ( 'NONE', *, *, #112, .T. ) ;
#183 = EDGE_LOOP ( 'NONE', ( #71 ) ) ;
#184 = STYLED_ITEM ( 'NONE', ( #211 ), #62 ) ;
#185 = CARTESIAN_POINT ( 'NONE',  ( 42.00000000000000711, 0.000000000000000000, 0.000000000000000000 ) ) ;
#186 = DIRECTION ( 'NONE',  ( 0.000000000000000000, 0.000000000000000000, 1.000000000000000000 ) ) ;
#187 = CYLINDRICAL_SURFACE ( 'NONE', #116, 7.999999999999996447 ) ;
#188 = ADVANCED_FACE ( 'NONE', ( #12, #95 ), #187, .T. ) ;
#189 = DIRECTION ( 'NONE',  ( 0.000000000000000000, 0.000000000000000000, 1.000000000000000000 ) ) ;
#190 = DIRECTION ( 'NONE',  ( 1.000000000000000000, 0.000000000000000000, 0.000000000000000000 ) ) ;
#191 = CARTESIAN_POINT ( 'NONE',  ( 5.999999999999998224, 0.000000000000000000, 0.000000000000000000 ) ) ;
#192 = CONICAL_SURFACE ( 'NONE', #250, 8.500000000000003553, 0.7853981633974471688 ) ;
#193 = CARTESIAN_POINT ( 'NONE',  ( 40.50000000000000711, 0.000000000000000000, 0.000000000000000000 ) ) ;
#194 = ADVANCED_FACE ( 'NONE', ( #16, #83 ), #239, .T. ) ;
#195 = CARTESIAN_POINT ( 'NONE',  ( 42.00000000000000711, 0.000000000000000000, 8.500000000000003553 ) ) ;
#196 = PLANE ( 'NONE',  #255 ) ;
#197 = PRODUCT_DEFINITION_FORMATION_WITH_SPECIFIED_SOURCE ( 'ANY', '', #102, .NOT_KNOWN. ) ;
#198 = PRODUCT_DEFINITION_SHAPE ( 'NONE', 'NONE',  #128 ) ;
#199 = DIRECTION ( 'NONE',  ( 0.000000000000000000, 0.000000000000000000, -1.000000000000000000 ) ) ;
#200 = UNCERTAINTY_MEASURE_WITH_UNIT (LENGTH_MEASURE( 1.000000000000000082E-05 ), #89, 'distance_accuracy_value', 'NONE');
#201 = CARTESIAN_POINT ( 'NONE',  ( 0.000000000000000000, 0.000000000000000000, 0.000000000000000000 ) ) ;
#202 = DIRECTION ( 'NONE',  ( 0.000000000000000000, 0.000000000000000000, -1.000000000000000000 ) ) ;
#203 =( NAMED_UNIT ( * ) PLANE_ANGLE_UNIT ( ) SI_UNIT ( $, .RADIAN. ) );
#204 = ORIENTED_EDGE ( 'NONE', *, *, #178, .F. ) ;
#205 = CIRCLE ( 'NONE', #125, 7.999999999999996447 ) ;
#206 = ADVANCED_FACE ( 'NONE', ( #258, #141 ), #222, .F. ) ;
#207 = ORIENTED_EDGE ( 'NONE', *, *, #100, .F. ) ;
#208 = ORIENTED_EDGE ( 'NONE', *, *, #100, .T. ) ;
#209 = ADVANCED_FACE ( 'NONE', ( #217, #1 ), #115, .T. ) ;
#210 = EDGE_LOOP ( 'NONE', ( #160 ) ) ;
#211 = PRESENTATION_STYLE_ASSIGNMENT (( #17 ) ) ;
#212 = CARTESIAN_POINT ( 'NONE',  ( 42.00000000000000711, 0.000000000000000000, 0.000000000000000000 ) ) ;
#213 = CARTESIAN_POINT ( 'NONE',  ( 4.649999999999997691, 0.000000000000000000, 0.000000000000000000 ) ) ;
#214 = COLOUR_RGB ( '',0.7764705882352941346, 0.7568627450980391913, 0.7372549019607843590 ) ;
#215 = DIRECTION ( 'NONE',  ( 0.000000000000000000, 0.000000000000000000, 1.000000000000000000 ) ) ;
#216 = EDGE_CURVE ( 'NONE', #121, #121, #151, .T. ) ;
#217 = FACE_OUTER_BOUND ( 'NONE', #44, .T. ) ;
#218 = PRESENTATION_LAYER_ASSIGNMENT (  '', '', ( #184 ) ) ;
#219 = AXIS2_PLACEMENT_3D ( 'NONE', #260, #139, #138 ) ;
#220 = DIRECTION ( 'NONE',  ( -1.000000000000000000, -0.000000000000000000, -0.000000000000000000 ) ) ;
#221 = CARTESIAN_POINT ( 'NONE',  ( 40.50000000000000711, 0.000000000000000000, 10.00000000000000178 ) ) ;
#222 = PLANE ( 'NONE',  #219 ) ;
#223 = DIRECTION ( 'NONE',  ( -1.000000000000000000, -0.000000000000000000, -0.000000000000000000 ) ) ;
#224 = CIRCLE ( 'NONE', #15, 8.000000000000001776 ) ;
#225 = EDGE_CURVE ( 'NONE', #175, #175, #181, .T. ) ;
#226 = EDGE_LOOP ( 'NONE', ( #179 ) ) ;
#227 = CARTESIAN_POINT ( 'NONE',  ( 1.499999999999999778, 0.000000000000000000, 0.000000000000000000 ) ) ;
#228 = EDGE_LOOP ( 'NONE', ( #165 ) ) ;
#229 = EDGE_CURVE ( 'NONE', #85, #85, #105, .T. ) ;
#230 = EDGE_LOOP ( 'NONE', ( #123 ) ) ;
#231 = DIRECTION ( 'NONE',  ( -1.000000000000000000, -0.000000000000000000, -0.000000000000000000 ) ) ;
#232 = AXIS2_PLACEMENT_3D ( 'NONE', #158, #223, #84 ) ;
#233 =( LENGTH_UNIT ( ) NAMED_UNIT ( * ) SI_UNIT ( .MILLI., .METRE. ) );
#234 = ADVANCED_FACE ( 'NONE', ( #243 ), #196, .F. ) ;
#235 = DIRECTION ( 'NONE',  ( 1.000000000000000000, 0.000000000000000000, 0.000000000000000000 ) ) ;
#236 = CARTESIAN_POINT ( 'NONE',  ( 0.000000000000000000, 0.000000000000000000, 0.000000000000000000 ) ) ;
#237 = AXIS2_PLACEMENT_3D ( 'NONE', #227, #235, #78 ) ;
#238 = CARTESIAN_POINT ( 'NONE',  ( 5.999999999999998224, 6.000000000000000000, 0.000000000000000000 ) ) ;
#239 = CYLINDRICAL_SURFACE ( 'NONE', #96, 6.000000000000000000 ) ;
#240 = CARTESIAN_POINT ( 'NONE',  ( 1.499999999999999778, 0.000000000000000000, 7.999999999999996447 ) ) ;
#241 = AXIS2_PLACEMENT_3D ( 'NONE', #247, #72, #70 ) ;
#242 =( GEOMETRIC_REPRESENTATION_CONTEXT ( 3 ) GLOBAL_UNCERTAINTY_ASSIGNED_CONTEXT ( ( #156 ) ) GLOBAL_UNIT_ASSIGNED_CONTEXT ( ( #119, #244, #65 ) ) REPRESENTATION_CONTEXT ( 'NONE', 'WORKASPACE' ) );
#243 = FACE_OUTER_BOUND ( 'NONE', #246, .T. ) ;
#244 =( NAMED_UNIT ( * ) PLANE_ANGLE_UNIT ( ) SI_UNIT ( $, .RADIAN. ) );
#245 = CARTESIAN_POINT ( 'NONE',  ( -1.028588808318270906E-16, 7.133974596215554520, 0.000000000000000000 ) ) ;
#246 = EDGE_LOOP ( 'NONE', ( #124 ) ) ;
#247 = CARTESIAN_POINT ( 'NONE',  ( -2.057177616636541811E-16, 0.000000000000000000, 0.000000000000000000 ) ) ;
#248 = ORIENTED_EDGE ( 'NONE', *, *, #136, .T. ) ;
#249 = COLOUR_RGB ( '',0.7764705882352941346, 0.7568627450980391913, 0.7372549019607843590 ) ;
#250 = AXIS2_PLACEMENT_3D ( 'NONE', #185, #68, #166 ) ;
#251 = DIRECTION ( 'NONE',  ( 1.000000000000000000, 0.000000000000000000, 0.000000000000000000 ) ) ;
#252 = DIRECTION ( 'NONE',  ( -1.000000000000000000, -0.000000000000000000, -0.000000000000000000 ) ) ;
#253 = MECHANICAL_DESIGN_GEOMETRIC_PRESENTATION_REPRESENTATION (  '', ( #8 ), #13 ) ;
#254 = DIRECTION ( 'NONE',  ( -0.000000000000000000, 0.000000000000000000, 1.000000000000000000 ) ) ;
#255 = AXIS2_PLACEMENT_3D ( 'NONE', #245, #157, #199 ) ;
#256 = DIRECTION ( 'NONE',  ( 0.000000000000000000, 0.000000000000000000, 1.000000000000000000 ) ) ;
#257 = DIRECTION ( 'NONE',  ( -1.000000000000000000, -0.000000000000000000, -0.000000000000000000 ) ) ;
#258 = FACE_OUTER_BOUND ( 'NONE', #91, .T. ) ;
#259 = APPLICATION_CONTEXT ( 'automotive_design' ) ;
#260 = CARTESIAN_POINT ( 'NONE',  ( 4.649999999999997691, 7.999999999999996447, 0.000000000000000000 ) ) ;
ENDSEC;
END-ISO-10303-21;
