ISO-10303-21;
HEADER;
FILE_DESCRIPTION (( 'STEP AP214' ),
    '1' );
FILE_NAME ('76.04.05.0004.step',
    '2021-04-02T18:04:50',
    ( '' ),
    ( '' ),
    'SwSTEP 2.0',
    'SolidWorks 2021',
    '' );
FILE_SCHEMA (( 'AUTOMOTIVE_DESIGN' ));
ENDSEC;

DATA;
#1 = EDGE_CURVE ( 'NONE', #5, #5, #130, .T. ) ;
#2 = CYLINDRICAL_SURFACE ( 'NONE', #123, 8.500000000000000000 ) ;
#3 = FACE_OUTER_BOUND ( 'NONE', #190, .T. ) ;
#4 = PRESENTATION_LAYER_ASSIGNMENT (  '', '', ( #148 ) ) ;
#5 = VERTEX_POINT ( 'NONE', #184 ) ;
#6 = PRESENTATION_STYLE_ASSIGNMENT (( #183 ) ) ;
#7 = ADVANCED_FACE ( 'NONE', ( #110, #214 ), #185, .F. ) ;
#8 =( NAMED_UNIT ( * ) SI_UNIT ( $, .STERADIAN. ) SOLID_ANGLE_UNIT ( ) );
#9 = ORIENTED_EDGE ( 'NONE', *, *, #49, .T. ) ;
#10 = AXIS2_PLACEMENT_3D ( 'NONE', #91, #151, #73 ) ;
#11 = CYLINDRICAL_SURFACE ( 'NONE', #58, 5.999999999999997335 ) ;
#12 = ADVANCED_FACE ( 'NONE', ( #189, #171 ), #161, .T. ) ;
#13 = CARTESIAN_POINT ( 'NONE',  ( 5.499999999999998224, 0.000000000000000000, 4.500000000000000000 ) ) ;
#14 = DIRECTION ( 'NONE',  ( 0.000000000000000000, 0.000000000000000000, 1.000000000000000000 ) ) ;
#15 = ORIENTED_EDGE ( 'NONE', *, *, #224, .F. ) ;
#16 = AXIS2_PLACEMENT_3D ( 'NONE', #126, #173, #210 ) ;
#17 = CYLINDRICAL_SURFACE ( 'NONE', #16, 5.999999999999999112 ) ;
#18 = UNCERTAINTY_MEASURE_WITH_UNIT (LENGTH_MEASURE( 1.000000000000000082E-05 ), #230, 'distance_accuracy_value', 'NONE');
#19 = COLOUR_RGB ( '',0.7764705882352941346, 0.7568627450980391913, 0.7372549019607843590 ) ;
#20 = FACE_OUTER_BOUND ( 'NONE', #250, .T. ) ;
#21 = DIRECTION ( 'NONE',  ( 0.000000000000000000, 0.000000000000000000, 1.000000000000000000 ) ) ;
#22 = DIRECTION ( 'NONE',  ( 0.000000000000000000, 0.000000000000000000, 1.000000000000000000 ) ) ;
#23 = AXIS2_PLACEMENT_3D ( 'NONE', #236, #176, #199 ) ;
#24 = UNCERTAINTY_MEASURE_WITH_UNIT (LENGTH_MEASURE( 1.000000000000000082E-05 ), #47, 'distance_accuracy_value', 'NONE');
#25 = CARTESIAN_POINT ( 'NONE',  ( 1.249999999999999778, 0.000000000000000000, 0.000000000000000000 ) ) ;
#26 = EDGE_LOOP ( 'NONE', ( #15 ) ) ;
#27 = DIRECTION ( 'NONE',  ( 0.000000000000000000, 0.000000000000000000, 1.000000000000000000 ) ) ;
#28 = EDGE_LOOP ( 'NONE', ( #87 ) ) ;
#29 = VERTEX_POINT ( 'NONE', #65 ) ;
#30 = VERTEX_POINT ( 'NONE', #86 ) ;
#31 = DIRECTION ( 'NONE',  ( 0.000000000000000000, 0.000000000000000000, 1.000000000000000000 ) ) ;
#32 = DIRECTION ( 'NONE',  ( 0.000000000000000000, 0.000000000000000000, -1.000000000000000000 ) ) ;
#33 = FACE_OUTER_BOUND ( 'NONE', #254, .T. ) ;
#34 =( NAMED_UNIT ( * ) SI_UNIT ( $, .STERADIAN. ) SOLID_ANGLE_UNIT ( ) );
#35 = ORIENTED_EDGE ( 'NONE', *, *, #56, .F. ) ;
#36 = EDGE_LOOP ( 'NONE', ( #131 ) ) ;
#37 = ORIENTED_EDGE ( 'NONE', *, *, #59, .T. ) ;
#38 = AXIS2_PLACEMENT_3D ( 'NONE', #187, #234, #31 ) ;
#39 = ADVANCED_FACE ( 'NONE', ( #229, #50 ), #17, .T. ) ;
#40 = DIRECTION ( 'NONE',  ( 0.000000000000000000, 0.000000000000000000, 1.000000000000000000 ) ) ;
#41 = FACE_OUTER_BOUND ( 'NONE', #26, .T. ) ;
#42 = DIRECTION ( 'NONE',  ( 0.000000000000000000, 0.000000000000000000, 1.000000000000000000 ) ) ;
#43 = CARTESIAN_POINT ( 'NONE',  ( 0.000000000000000000, 0.000000000000000000, 0.000000000000000000 ) ) ;
#44 = SURFACE_SIDE_STYLE ('',( #139 ) ) ;
#45 = ADVANCED_FACE ( 'NONE', ( #33, #111 ), #11, .T. ) ;
#46 = SURFACE_STYLE_USAGE ( .BOTH. , #44 ) ;
#47 =( LENGTH_UNIT ( ) NAMED_UNIT ( * ) SI_UNIT ( .MILLI., .METRE. ) );
#48 = ORIENTED_EDGE ( 'NONE', *, *, #1, .F. ) ;
#49 = EDGE_CURVE ( 'NONE', #85, #85, #115, .T. ) ;
#50 = FACE_OUTER_BOUND ( 'NONE', #83, .T. ) ;
#51 = DIRECTION ( 'NONE',  ( -1.000000000000000000, -0.000000000000000000, -0.000000000000000000 ) ) ;
#52 = AXIS2_PLACEMENT_3D ( 'NONE', #90, #260, #21 ) ;
#53 = COLOUR_RGB ( '',0.7764705882352941346, 0.7568627450980391913, 0.7372549019607843590 ) ;
#54 = ORIENTED_EDGE ( 'NONE', *, *, #154, .F. ) ;
#55 = EDGE_LOOP ( 'NONE', ( #233 ) ) ;
#56 = EDGE_CURVE ( 'NONE', #207, #207, #77, .T. ) ;
#57 = DIRECTION ( 'NONE',  ( 0.000000000000000000, 0.000000000000000000, 1.000000000000000000 ) ) ;
#58 = AXIS2_PLACEMENT_3D ( 'NONE', #169, #231, #145 ) ;
#59 = EDGE_CURVE ( 'NONE', #163, #163, #197, .T. ) ;
#60 = DIRECTION ( 'NONE',  ( 0.000000000000000000, 0.000000000000000000, 1.000000000000000000 ) ) ;
#61 = DIRECTION ( 'NONE',  ( -1.000000000000000000, -0.000000000000000000, -0.000000000000000000 ) ) ;
#62 = EDGE_CURVE ( 'NONE', #245, #245, #147, .T. ) ;
#63 = DIRECTION ( 'NONE',  ( -1.000000000000000000, -0.000000000000000000, -0.000000000000000000 ) ) ;
#64 = FACE_OUTER_BOUND ( 'NONE', #180, .T. ) ;
#65 = CARTESIAN_POINT ( 'NONE',  ( 1.249999999999999778, 0.000000000000000000, 5.999999999999996447 ) ) ;
#66 = ADVANCED_FACE ( 'NONE', ( #41 ), #136, .F. ) ;
#67 = PRODUCT ( '76.04.05.0004', '76.04.05.0004', '', ( #228 ) ) ;
#68 = CARTESIAN_POINT ( 'NONE',  ( 1.242300612344068581E-17, 5.278312163512961952, 0.000000000000000000 ) ) ;
#69 = APPLICATION_PROTOCOL_DEFINITION ( 'draft international standard', 'automotive_design', 1998, #94 ) ;
#70 = AXIS2_PLACEMENT_3D ( 'NONE', #259, #138, #219 ) ;
#71 = ORIENTED_EDGE ( 'NONE', *, *, #1, .T. ) ;
#72 = DIRECTION ( 'NONE',  ( 1.000000000000000000, 0.000000000000000000, 0.000000000000000000 ) ) ;
#73 = DIRECTION ( 'NONE',  ( 0.000000000000000000, 0.000000000000000000, -1.000000000000000000 ) ) ;
#74 = ORIENTED_EDGE ( 'NONE', *, *, #59, .F. ) ;
#75 = DIRECTION ( 'NONE',  ( -1.000000000000000000, -0.000000000000000000, -0.000000000000000000 ) ) ;
#76 = EDGE_LOOP ( 'NONE', ( #95 ) ) ;
#77 = CIRCLE ( 'NONE', #52, 6.000000000000000888 ) ;
#78 = CARTESIAN_POINT ( 'NONE',  ( 5.499999999999998224, 0.000000000000000000, 0.000000000000000000 ) ) ;
#79 = DIRECTION ( 'NONE',  ( 0.000000000000000000, 0.000000000000000000, 1.000000000000000000 ) ) ;
#80 = FACE_OUTER_BOUND ( 'NONE', #208, .T. ) ;
#81 = ADVANCED_FACE ( 'NONE', ( #181, #258 ), #222, .T. ) ;
#82 = DIRECTION ( 'NONE',  ( -1.000000000000000000, -0.000000000000000000, -0.000000000000000000 ) ) ;
#83 = EDGE_LOOP ( 'NONE', ( #166 ) ) ;
#84 = CIRCLE ( 'NONE', #93, 7.000000000000004441 ) ;
#85 = VERTEX_POINT ( 'NONE', #168 ) ;
#86 = CARTESIAN_POINT ( 'NONE',  ( 33.00000000000000000, 0.000000000000000000, 7.000000000000004441 ) ) ;
#87 = ORIENTED_EDGE ( 'NONE', *, *, #164, .T. ) ;
#88 = CARTESIAN_POINT ( 'NONE',  ( 4.349999999999997868, 0.000000000000000000, 4.500000000000000000 ) ) ;
#89 = EDGE_LOOP ( 'NONE', ( #252 ) ) ;
#90 = CARTESIAN_POINT ( 'NONE',  ( 30.00000000000000000, 0.000000000000000000, 0.000000000000000000 ) ) ;
#91 = CARTESIAN_POINT ( 'NONE',  ( 30.00000000000000000, 8.500000000000000000, 0.000000000000000000 ) ) ;
#92 = AXIS2_PLACEMENT_3D ( 'NONE', #179, #159, #79 ) ;
#93 = AXIS2_PLACEMENT_3D ( 'NONE', #119, #201, #22 ) ;
#94 = APPLICATION_CONTEXT ( 'automotive_design' ) ;
#95 = ORIENTED_EDGE ( 'NONE', *, *, #102, .T. ) ;
#96 = DIRECTION ( 'NONE',  ( 0.000000000000000000, 0.000000000000000000, 1.000000000000000000 ) ) ;
#97 = FACE_OUTER_BOUND ( 'NONE', #248, .T. ) ;
#98 = PRODUCT_DEFINITION_SHAPE ( 'NONE', 'NONE',  #128 ) ;
#99 = DIRECTION ( 'NONE',  ( -1.000000000000000000, -0.000000000000000000, -0.000000000000000000 ) ) ;
#100 = AXIS2_PLACEMENT_3D ( 'NONE', #244, #61, #96 ) ;
#101 = FILL_AREA_STYLE_COLOUR ( '', #53 ) ;
#102 = EDGE_CURVE ( 'NONE', #144, #144, #177, .T. ) ;
#103 = EDGE_LOOP ( 'NONE', ( #193 ) ) ;
#104 = DIRECTION ( 'NONE',  ( -1.000000000000000000, 0.000000000000000000, -0.000000000000000000 ) ) ;
#105 = CLOSED_SHELL ( 'NONE', ( #66, #12, #217, #7, #39, #167, #174, #109, #45, #81, #242 ) ) ;
#106 = AXIS2_PLACEMENT_3D ( 'NONE', #137, #175, #220 ) ;
#107 = SURFACE_SIDE_STYLE ('',( #125 ) ) ;
#108 =( NAMED_UNIT ( * ) PLANE_ANGLE_UNIT ( ) SI_UNIT ( $, .RADIAN. ) );
#109 = ADVANCED_FACE ( 'NONE', ( #158, #178 ), #240, .F. ) ;
#110 = FACE_BOUND ( 'NONE', #113, .T. ) ;
#111 = FACE_OUTER_BOUND ( 'NONE', #76, .T. ) ;
#112 = DIRECTION ( 'NONE',  ( 0.000000000000000000, 0.000000000000000000, 1.000000000000000000 ) ) ;
#113 = EDGE_LOOP ( 'NONE', ( #35 ) ) ;
#114 = ORIENTED_EDGE ( 'NONE', *, *, #102, .F. ) ;
#115 = CIRCLE ( 'NONE', #152, 8.500000000000000000 ) ;
#116 = PRESENTATION_LAYER_ASSIGNMENT (  '', '', ( #162 ) ) ;
#117 = FILL_AREA_STYLE ('',( #101 ) ) ;
#118 = CARTESIAN_POINT ( 'NONE',  ( 33.00000000000000000, 0.000000000000000000, 0.000000000000000000 ) ) ;
#119 = CARTESIAN_POINT ( 'NONE',  ( 33.00000000000000000, 0.000000000000000000, 0.000000000000000000 ) ) ;
#120 = PLANE ( 'NONE',  #182 ) ;
#121 = EDGE_LOOP ( 'NONE', ( #48 ) ) ;
#122 = CIRCLE ( 'NONE', #247, 5.999999999999996447 ) ;
#123 = AXIS2_PLACEMENT_3D ( 'NONE', #43, #63, #42 ) ;
#124 = EDGE_LOOP ( 'NONE', ( #74 ) ) ;
#125 = SURFACE_STYLE_FILL_AREA ( #127 ) ;
#126 = CARTESIAN_POINT ( 'NONE',  ( 0.000000000000000000, 0.000000000000000000, 0.000000000000000000 ) ) ;
#127 = FILL_AREA_STYLE ('',( #206 ) ) ;
#128 = PRODUCT_DEFINITION ( 'UNKNOWN', '', #191, #153 ) ;
#129 = CARTESIAN_POINT ( 'NONE',  ( 30.00000000000000000, 0.000000000000000000, 0.000000000000000000 ) ) ;
#130 = CIRCLE ( 'NONE', #38, 8.500000000000000000 ) ;
#131 = ORIENTED_EDGE ( 'NONE', *, *, #164, .F. ) ;
#132 = ORIENTED_EDGE ( 'NONE', *, *, #62, .F. ) ;
#133 = DIRECTION ( 'NONE',  ( 0.000000000000000000, 0.000000000000000000, -1.000000000000000000 ) ) ;
#134 = CARTESIAN_POINT ( 'NONE',  ( 0.000000000000000000, 0.000000000000000000, 0.000000000000000000 ) ) ;
#135 = AXIS2_PLACEMENT_3D ( 'NONE', #78, #82, #57 ) ;
#136 = PLANE ( 'NONE',  #156 ) ;
#137 = CARTESIAN_POINT ( 'NONE',  ( 0.000000000000000000, 0.000000000000000000, 0.000000000000000000 ) ) ;
#138 = DIRECTION ( 'NONE',  ( -1.000000000000000000, 0.000000000000000000, -0.000000000000000000 ) ) ;
#139 = SURFACE_STYLE_FILL_AREA ( #117 ) ;
#140 = ORIENTED_EDGE ( 'NONE', *, *, #49, .F. ) ;
#141 = CARTESIAN_POINT ( 'NONE',  ( 2.484601224688137163E-17, 0.000000000000000000, 5.278312163512961952 ) ) ;
#142 = VERTEX_POINT ( 'NONE', #141 ) ;
#143 = ORIENTED_EDGE ( 'NONE', *, *, #224, .T. ) ;
#144 = VERTEX_POINT ( 'NONE', #160 ) ;
#145 = DIRECTION ( 'NONE',  ( 0.000000000000000000, 0.000000000000000000, 1.000000000000000000 ) ) ;
#146 = EDGE_LOOP ( 'NONE', ( #143 ) ) ;
#147 = CIRCLE ( 'NONE', #186, 4.500000000000000000 ) ;
#148 = STYLED_ITEM ( 'NONE', ( #246 ), #226 ) ;
#149 = CARTESIAN_POINT ( 'NONE',  ( 33.00000000000000000, 0.000000000000000000, 0.000000000000000000 ) ) ;
#150 = DIRECTION ( 'NONE',  ( 1.000000000000000000, 0.000000000000000000, 0.000000000000000000 ) ) ;
#151 = DIRECTION ( 'NONE',  ( 1.000000000000000000, 0.000000000000000000, 0.000000000000000000 ) ) ;
#152 = AXIS2_PLACEMENT_3D ( 'NONE', #129, #51, #14 ) ;
#153 = PRODUCT_DEFINITION_CONTEXT ( 'detailed design', #195, 'design' ) ;
#154 = EDGE_CURVE ( 'NONE', #29, #29, #122, .T. ) ;
#155 = DIRECTION ( 'NONE',  ( -0.000000000000000000, 0.000000000000000000, 1.000000000000000000 ) ) ;
#156 = AXIS2_PLACEMENT_3D ( 'NONE', #118, #104, #155 ) ;
#157 = DIRECTION ( 'NONE',  ( 1.000000000000000000, 0.000000000000000000, 0.000000000000000000 ) ) ;
#158 = FACE_OUTER_BOUND ( 'NONE', #213, .T. ) ;
#159 = DIRECTION ( 'NONE',  ( -1.000000000000000000, -0.000000000000000000, -0.000000000000000000 ) ) ;
#160 = CARTESIAN_POINT ( 'NONE',  ( 4.349999999999997868, 0.000000000000000000, 5.999999999999998224 ) ) ;
#161 = CONICAL_SURFACE ( 'NONE', #172, 7.000000000000004441, 0.7853981633974466137 ) ;
#162 = STYLED_ITEM ( 'NONE', ( #6 ), #194 ) ;
#163 = VERTEX_POINT ( 'NONE', #13 ) ;
#164 = EDGE_CURVE ( 'NONE', #142, #142, #216, .T. ) ;
#165 =( LENGTH_UNIT ( ) NAMED_UNIT ( * ) SI_UNIT ( .MILLI., .METRE. ) );
#166 = ORIENTED_EDGE ( 'NONE', *, *, #56, .T. ) ;
#167 = ADVANCED_FACE ( 'NONE', ( #200, #97 ), #221, .F. ) ;
#168 = CARTESIAN_POINT ( 'NONE',  ( 30.00000000000000000, 0.000000000000000000, 8.500000000000000000 ) ) ;
#169 = CARTESIAN_POINT ( 'NONE',  ( 0.000000000000000000, 0.000000000000000000, 0.000000000000000000 ) ) ;
#170 = EDGE_LOOP ( 'NONE', ( #9 ) ) ;
#171 = FACE_BOUND ( 'NONE', #146, .T. ) ;
#172 = AXIS2_PLACEMENT_3D ( 'NONE', #149, #75, #112 ) ;
#173 = DIRECTION ( 'NONE',  ( -1.000000000000000000, -0.000000000000000000, -0.000000000000000000 ) ) ;
#174 = ADVANCED_FACE ( 'NONE', ( #80, #3 ), #223, .T. ) ;
#175 = DIRECTION ( 'NONE',  ( -1.000000000000000000, -0.000000000000000000, -0.000000000000000000 ) ) ;
#176 = DIRECTION ( 'NONE',  ( 1.000000000000000000, 0.000000000000000000, 0.000000000000000000 ) ) ;
#177 = CIRCLE ( 'NONE', #92, 5.999999999999998224 ) ;
#178 = FACE_BOUND ( 'NONE', #55, .T. ) ;
#179 = CARTESIAN_POINT ( 'NONE',  ( 4.349999999999997868, 0.000000000000000000, 0.000000000000000000 ) ) ;
#180 = EDGE_LOOP ( 'NONE', ( #140 ) ) ;
#181 = FACE_BOUND ( 'NONE', #36, .T. ) ;
#182 = AXIS2_PLACEMENT_3D ( 'NONE', #68, #72, #32 ) ;
#183 = SURFACE_STYLE_USAGE ( .BOTH. , #107 ) ;
#184 = CARTESIAN_POINT ( 'NONE',  ( 31.50000000000000000, 0.000000000000000000, 8.500000000000000000 ) ) ;
#185 = PLANE ( 'NONE',  #10 ) ;
#186 = AXIS2_PLACEMENT_3D ( 'NONE', #204, #99, #27 ) ;
#187 = CARTESIAN_POINT ( 'NONE',  ( 31.50000000000000000, 0.000000000000000000, 0.000000000000000000 ) ) ;
#188 = CARTESIAN_POINT ( 'NONE',  ( 30.00000000000000000, 0.000000000000000000, 6.000000000000000888 ) ) ;
#189 = FACE_OUTER_BOUND ( 'NONE', #121, .T. ) ;
#190 = EDGE_LOOP ( 'NONE', ( #37 ) ) ;
#191 = PRODUCT_DEFINITION_FORMATION_WITH_SPECIFIED_SOURCE ( 'ANY', '', #67, .NOT_KNOWN. ) ;
#192 =( NAMED_UNIT ( * ) SI_UNIT ( $, .STERADIAN. ) SOLID_ANGLE_UNIT ( ) );
#193 = ORIENTED_EDGE ( 'NONE', *, *, #205, .F. ) ;
#194 = ADVANCED_BREP_SHAPE_REPRESENTATION ( '76.04.05.0004', ( #226, #243 ), #239 ) ;
#195 = APPLICATION_CONTEXT ( 'automotive_design' ) ;
#196 = MECHANICAL_DESIGN_GEOMETRIC_PRESENTATION_REPRESENTATION (  '', ( #162 ), #257 ) ;
#197 = CIRCLE ( 'NONE', #232, 4.500000000000000000 ) ;
#198 = MECHANICAL_DESIGN_GEOMETRIC_PRESENTATION_REPRESENTATION (  '', ( #148 ), #218 ) ;
#199 = DIRECTION ( 'NONE',  ( 0.000000000000000000, 0.000000000000000000, -1.000000000000000000 ) ) ;
#200 = FACE_BOUND ( 'NONE', #124, .T. ) ;
#201 = DIRECTION ( 'NONE',  ( -1.000000000000000000, -0.000000000000000000, -0.000000000000000000 ) ) ;
#202 = DIRECTION ( 'NONE',  ( -1.000000000000000000, -0.000000000000000000, -0.000000000000000000 ) ) ;
#203 = UNCERTAINTY_MEASURE_WITH_UNIT (LENGTH_MEASURE( 1.000000000000000082E-05 ), #165, 'distance_accuracy_value', 'NONE');
#204 = CARTESIAN_POINT ( 'NONE',  ( 4.349999999999997868, 0.000000000000000000, 0.000000000000000000 ) ) ;
#205 = EDGE_CURVE ( 'NONE', #227, #227, #253, .T. ) ;
#206 = FILL_AREA_STYLE_COLOUR ( '', #19 ) ;
#207 = VERTEX_POINT ( 'NONE', #188 ) ;
#208 = EDGE_LOOP ( 'NONE', ( #132 ) ) ;
#209 = APPLICATION_PROTOCOL_DEFINITION ( 'draft international standard', 'automotive_design', 1998, #195 ) ;
#210 = DIRECTION ( 'NONE',  ( 0.000000000000000000, 0.000000000000000000, 1.000000000000000000 ) ) ;
#211 =( NAMED_UNIT ( * ) PLANE_ANGLE_UNIT ( ) SI_UNIT ( $, .RADIAN. ) );
#212 = ORIENTED_EDGE ( 'NONE', *, *, #205, .T. ) ;
#213 = EDGE_LOOP ( 'NONE', ( #114 ) ) ;
#214 = FACE_OUTER_BOUND ( 'NONE', #170, .T. ) ;
#215 = DIRECTION ( 'NONE',  ( -1.000000000000000000, -0.000000000000000000, -0.000000000000000000 ) ) ;
#216 = CIRCLE ( 'NONE', #100, 5.278312163512961952 ) ;
#217 = ADVANCED_FACE ( 'NONE', ( #64, #20 ), #2, .T. ) ;
#218 =( GEOMETRIC_REPRESENTATION_CONTEXT ( 3 ) GLOBAL_UNCERTAINTY_ASSIGNED_CONTEXT ( ( #203 ) ) GLOBAL_UNIT_ASSIGNED_CONTEXT ( ( #165, #211, #34 ) ) REPRESENTATION_CONTEXT ( 'NONE', 'WORKASPACE' ) );
#219 = DIRECTION ( 'NONE',  ( -0.000000000000000000, 0.000000000000000000, 1.000000000000000000 ) ) ;
#220 = DIRECTION ( 'NONE',  ( 0.000000000000000000, 0.000000000000000000, 1.000000000000000000 ) ) ;
#221 = PLANE ( 'NONE',  #23 ) ;
#222 = CONICAL_SURFACE ( 'NONE', #238, 5.999999999999996447, 0.5235987755983003700 ) ;
#223 = CYLINDRICAL_SURFACE ( 'NONE', #106, 4.500000000000000000 ) ;
#224 = EDGE_CURVE ( 'NONE', #30, #30, #84, .T. ) ;
#225 = FACE_OUTER_BOUND ( 'NONE', #28, .T. ) ;
#226 = MANIFOLD_SOLID_BREP ( 'Revolve2', #105 ) ;
#227 = VERTEX_POINT ( 'NONE', #249 ) ;
#228 = PRODUCT_CONTEXT ( 'NONE', #94, 'mechanical' ) ;
#229 = FACE_OUTER_BOUND ( 'NONE', #103, .T. ) ;
#230 =( LENGTH_UNIT ( ) NAMED_UNIT ( * ) SI_UNIT ( .MILLI., .METRE. ) );
#231 = DIRECTION ( 'NONE',  ( -1.000000000000000000, -0.000000000000000000, -0.000000000000000000 ) ) ;
#232 = AXIS2_PLACEMENT_3D ( 'NONE', #237, #202, #60 ) ;
#233 = ORIENTED_EDGE ( 'NONE', *, *, #62, .T. ) ;
#234 = DIRECTION ( 'NONE',  ( -1.000000000000000000, -0.000000000000000000, -0.000000000000000000 ) ) ;
#235 = SHAPE_DEFINITION_REPRESENTATION ( #98, #194 ) ;
#236 = CARTESIAN_POINT ( 'NONE',  ( 5.499999999999998224, 4.500000000000000000, 0.000000000000000000 ) ) ;
#237 = CARTESIAN_POINT ( 'NONE',  ( 5.499999999999998224, 0.000000000000000000, 0.000000000000000000 ) ) ;
#238 = AXIS2_PLACEMENT_3D ( 'NONE', #241, #157, #133 ) ;
#239 =( GEOMETRIC_REPRESENTATION_CONTEXT ( 3 ) GLOBAL_UNCERTAINTY_ASSIGNED_CONTEXT ( ( #18 ) ) GLOBAL_UNIT_ASSIGNED_CONTEXT ( ( #230, #108, #8 ) ) REPRESENTATION_CONTEXT ( 'NONE', 'WORKASPACE' ) );
#240 = PLANE ( 'NONE',  #70 ) ;
#241 = CARTESIAN_POINT ( 'NONE',  ( 1.249999999999999778, 0.000000000000000000, 0.000000000000000000 ) ) ;
#242 = ADVANCED_FACE ( 'NONE', ( #225 ), #120, .F. ) ;
#243 = AXIS2_PLACEMENT_3D ( 'NONE', #134, #255, #150 ) ;
#244 = CARTESIAN_POINT ( 'NONE',  ( 2.484601224688137163E-17, 0.000000000000000000, 0.000000000000000000 ) ) ;
#245 = VERTEX_POINT ( 'NONE', #88 ) ;
#246 = PRESENTATION_STYLE_ASSIGNMENT (( #46 ) ) ;
#247 = AXIS2_PLACEMENT_3D ( 'NONE', #25, #215, #40 ) ;
#248 = EDGE_LOOP ( 'NONE', ( #212 ) ) ;
#249 = CARTESIAN_POINT ( 'NONE',  ( 5.499999999999998224, 0.000000000000000000, 5.999999999999997335 ) ) ;
#250 = EDGE_LOOP ( 'NONE', ( #71 ) ) ;
#251 = PRODUCT_RELATED_PRODUCT_CATEGORY ( 'part', '', ( #67 ) ) ;
#252 = ORIENTED_EDGE ( 'NONE', *, *, #154, .T. ) ;
#253 = CIRCLE ( 'NONE', #135, 5.999999999999997335 ) ;
#254 = EDGE_LOOP ( 'NONE', ( #54 ) ) ;
#255 = DIRECTION ( 'NONE',  ( 0.000000000000000000, 0.000000000000000000, 1.000000000000000000 ) ) ;
#256 =( NAMED_UNIT ( * ) PLANE_ANGLE_UNIT ( ) SI_UNIT ( $, .RADIAN. ) );
#257 =( GEOMETRIC_REPRESENTATION_CONTEXT ( 3 ) GLOBAL_UNCERTAINTY_ASSIGNED_CONTEXT ( ( #24 ) ) GLOBAL_UNIT_ASSIGNED_CONTEXT ( ( #47, #256, #192 ) ) REPRESENTATION_CONTEXT ( 'NONE', 'WORKASPACE' ) );
#258 = FACE_OUTER_BOUND ( 'NONE', #89, .T. ) ;
#259 = CARTESIAN_POINT ( 'NONE',  ( 4.349999999999997868, 5.999999999999998224, 0.000000000000000000 ) ) ;
#260 = DIRECTION ( 'NONE',  ( -1.000000000000000000, -0.000000000000000000, -0.000000000000000000 ) ) ;
ENDSEC;
END-ISO-10303-21;
