ISO-10303-21;
HEADER;
FILE_DESCRIPTION (( 'STEP AP214' ),
    '1' );
FILE_NAME ('76.04.05.0003.step',
    '2021-04-02T18:04:48',
    ( '' ),
    ( '' ),
    'SwSTEP 2.0',
    'SolidWorks 2021',
    '' );
FILE_SCHEMA (( 'AUTOMOTIVE_DESIGN' ));
ENDSEC;

DATA;
#1 = CARTESIAN_POINT ( 'NONE',  ( 25.00000000000000000, 6.999999999999999112, 0.000000000000000000 ) ) ;
#2 = FILL_AREA_STYLE_COLOUR ( '', #217 ) ;
#3 = DIRECTION ( 'NONE',  ( 0.000000000000000000, 0.000000000000000000, 1.000000000000000000 ) ) ;
#4 = AXIS2_PLACEMENT_3D ( 'NONE', #144, #45, #225 ) ;
#5 = PRESENTATION_LAYER_ASSIGNMENT (  '', '', ( #197 ) ) ;
#6 = FACE_BOUND ( 'NONE', #149, .T. ) ;
#7 = ADVANCED_BREP_SHAPE_REPRESENTATION ( '76.04.05.0003', ( #224, #84 ), #94 ) ;
#8 = DIRECTION ( 'NONE',  ( -1.000000000000000000, -0.000000000000000000, -0.000000000000000000 ) ) ;
#9 = CIRCLE ( 'NONE', #166, 6.999999999999999112 ) ;
#10 = SURFACE_STYLE_FILL_AREA ( #151 ) ;
#11 = EDGE_LOOP ( 'NONE', ( #216 ) ) ;
#12 = AXIS2_PLACEMENT_3D ( 'NONE', #102, #8, #82 ) ;
#13 = VERTEX_POINT ( 'NONE', #46 ) ;
#14 = DIRECTION ( 'NONE',  ( -1.000000000000000000, -0.000000000000000000, -0.000000000000000000 ) ) ;
#15 = FACE_OUTER_BOUND ( 'NONE', #98, .T. ) ;
#16 = AXIS2_PLACEMENT_3D ( 'NONE', #81, #161, #40 ) ;
#17 = DIRECTION ( 'NONE',  ( -1.000000000000000000, -0.000000000000000000, -0.000000000000000000 ) ) ;
#18 = ORIENTED_EDGE ( 'NONE', *, *, #145, .F. ) ;
#19 = DIRECTION ( 'NONE',  ( -1.000000000000000000, -0.000000000000000000, -0.000000000000000000 ) ) ;
#20 = PRODUCT ( '76.04.05.0003', '76.04.05.0003', '', ( #253 ) ) ;
#21 = CIRCLE ( 'NONE', #4, 4.000000000000000000 ) ;
#22 = SHAPE_DEFINITION_REPRESENTATION ( #234, #7 ) ;
#23 = FACE_OUTER_BOUND ( 'NONE', #96, .T. ) ;
#24 = FACE_OUTER_BOUND ( 'NONE', #238, .T. ) ;
#25 = SURFACE_STYLE_FILL_AREA ( #105 ) ;
#26 = EDGE_CURVE ( 'NONE', #107, #107, #120, .T. ) ;
#27 = CARTESIAN_POINT ( 'NONE',  ( 4.500000000000000888, 0.000000000000000000, 4.000000000000000000 ) ) ;
#28 = CARTESIAN_POINT ( 'NONE',  ( 3.450000000000000178, 0.000000000000000000, 4.000000000000000000 ) ) ;
#29 = VERTEX_POINT ( 'NONE', #27 ) ;
#30 = ORIENTED_EDGE ( 'NONE', *, *, #145, .T. ) ;
#31 = CARTESIAN_POINT ( 'NONE',  ( 26.00000000000000355, 0.000000000000000000, 6.999999999999999112 ) ) ;
#32 = ADVANCED_FACE ( 'NONE', ( #242 ), #39, .F. ) ;
#33 = CARTESIAN_POINT ( 'NONE',  ( 0.000000000000000000, 0.000000000000000000, 0.000000000000000000 ) ) ;
#34 = DIRECTION ( 'NONE',  ( -1.000000000000000000, -0.000000000000000000, -0.000000000000000000 ) ) ;
#35 = CLOSED_SHELL ( 'NONE', ( #32, #241, #106, #186, #93, #236, #177, #157, #101, #200, #130 ) ) ;
#36 = MECHANICAL_DESIGN_GEOMETRIC_PRESENTATION_REPRESENTATION (  '', ( #197 ), #254 ) ;
#37 = EDGE_LOOP ( 'NONE', ( #118 ) ) ;
#38 = DIRECTION ( 'NONE',  ( 0.000000000000000000, 0.000000000000000000, 1.000000000000000000 ) ) ;
#39 = PLANE ( 'NONE',  #246 ) ;
#40 = DIRECTION ( 'NONE',  ( 0.000000000000000000, 0.000000000000000000, -1.000000000000000000 ) ) ;
#41 = EDGE_CURVE ( 'NONE', #13, #13, #142, .T. ) ;
#42 = DIRECTION ( 'NONE',  ( 1.000000000000000000, 0.000000000000000000, 0.000000000000000000 ) ) ;
#43 = FACE_OUTER_BOUND ( 'NONE', #49, .T. ) ;
#44 = FACE_BOUND ( 'NONE', #57, .T. ) ;
#45 = DIRECTION ( 'NONE',  ( -1.000000000000000000, -0.000000000000000000, -0.000000000000000000 ) ) ;
#46 = CARTESIAN_POINT ( 'NONE',  ( 27.00000000000000711, 0.000000000000000000, 6.000000000000001776 ) ) ;
#47 = EDGE_LOOP ( 'NONE', ( #228 ) ) ;
#48 = CARTESIAN_POINT ( 'NONE',  ( 3.449999999999999734, 0.000000000000000000, 4.999999999999995559 ) ) ;
#49 = EDGE_LOOP ( 'NONE', ( #75 ) ) ;
#50 = CARTESIAN_POINT ( 'NONE',  ( 0.000000000000000000, 0.000000000000000000, 0.000000000000000000 ) ) ;
#51 = VERTEX_POINT ( 'NONE', #170 ) ;
#52 = EDGE_LOOP ( 'NONE', ( #109 ) ) ;
#53 = FACE_OUTER_BOUND ( 'NONE', #179, .T. ) ;
#54 = DIRECTION ( 'NONE',  ( 0.000000000000000000, 0.000000000000000000, 1.000000000000000000 ) ) ;
#55 = CIRCLE ( 'NONE', #110, 4.999999999999995559 ) ;
#56 = CONICAL_SURFACE ( 'NONE', #240, 6.000000000000001776, 0.7853981633974447263 ) ;
#57 = EDGE_LOOP ( 'NONE', ( #178 ) ) ;
#58 = DIRECTION ( 'NONE',  ( -0.000000000000000000, 0.000000000000000000, 1.000000000000000000 ) ) ;
#59 = FACE_OUTER_BOUND ( 'NONE', #132, .T. ) ;
#60 = DIRECTION ( 'NONE',  ( -1.000000000000000000, -0.000000000000000000, -0.000000000000000000 ) ) ;
#61 = AXIS2_PLACEMENT_3D ( 'NONE', #136, #34, #54 ) ;
#62 = DIRECTION ( 'NONE',  ( 0.000000000000000000, 0.000000000000000000, 1.000000000000000000 ) ) ;
#63 = EDGE_CURVE ( 'NONE', #191, #191, #187, .T. ) ;
#64 = DIRECTION ( 'NONE',  ( 1.000000000000000000, 0.000000000000000000, 0.000000000000000000 ) ) ;
#65 = DIRECTION ( 'NONE',  ( 0.000000000000000000, 0.000000000000000000, 1.000000000000000000 ) ) ;
#66 = PRESENTATION_LAYER_ASSIGNMENT (  '', '', ( #180 ) ) ;
#67 = ORIENTED_EDGE ( 'NONE', *, *, #26, .T. ) ;
#68 = APPLICATION_CONTEXT ( 'automotive_design' ) ;
#69 = VERTEX_POINT ( 'NONE', #48 ) ;
#70 = ORIENTED_EDGE ( 'NONE', *, *, #41, .T. ) ;
#71 = CIRCLE ( 'NONE', #97, 4.422649730810366719 ) ;
#72 = FILL_AREA_STYLE_COLOUR ( '', #116 ) ;
#73 = CYLINDRICAL_SURFACE ( 'NONE', #245, 4.999999999999997335 ) ;
#74 = AXIS2_PLACEMENT_3D ( 'NONE', #156, #176, #79 ) ;
#75 = ORIENTED_EDGE ( 'NONE', *, *, #164, .F. ) ;
#76 = EDGE_CURVE ( 'NONE', #90, #90, #55, .T. ) ;
#77 = PLANE ( 'NONE',  #222 ) ;
#78 = CARTESIAN_POINT ( 'NONE',  ( 4.500000000000000888, 0.000000000000000000, 0.000000000000000000 ) ) ;
#79 = DIRECTION ( 'NONE',  ( 0.000000000000000000, 0.000000000000000000, 1.000000000000000000 ) ) ;
#80 = EDGE_CURVE ( 'NONE', #91, #91, #9, .T. ) ;
#81 = CARTESIAN_POINT ( 'NONE',  ( 4.500000000000000888, 4.000000000000000000, 0.000000000000000000 ) ) ;
#82 = DIRECTION ( 'NONE',  ( 0.000000000000000000, 0.000000000000000000, 1.000000000000000000 ) ) ;
#83 = DIRECTION ( 'NONE',  ( 1.000000000000000000, 0.000000000000000000, 0.000000000000000000 ) ) ;
#84 = AXIS2_PLACEMENT_3D ( 'NONE', #50, #131, #42 ) ;
#85 = FACE_BOUND ( 'NONE', #192, .T. ) ;
#86 = CYLINDRICAL_SURFACE ( 'NONE', #208, 4.000000000000000000 ) ;
#87 = APPLICATION_PROTOCOL_DEFINITION ( 'draft international standard', 'automotive_design', 1998, #68 ) ;
#88 = SURFACE_SIDE_STYLE ('',( #10 ) ) ;
#89 = ORIENTED_EDGE ( 'NONE', *, *, #182, .T. ) ;
#90 = VERTEX_POINT ( 'NONE', #231 ) ;
#91 = VERTEX_POINT ( 'NONE', #229 ) ;
#92 = CIRCLE ( 'NONE', #12, 4.999999999999995559 ) ;
#93 = ADVANCED_FACE ( 'NONE', ( #158, #139 ), #73, .T. ) ;
#94 =( GEOMETRIC_REPRESENTATION_CONTEXT ( 3 ) GLOBAL_UNCERTAINTY_ASSIGNED_CONTEXT ( ( #232 ) ) GLOBAL_UNIT_ASSIGNED_CONTEXT ( ( #150, #255, #168 ) ) REPRESENTATION_CONTEXT ( 'NONE', 'WORKASPACE' ) );
#95 = CARTESIAN_POINT ( 'NONE',  ( 27.00000000000000711, 0.000000000000000000, 0.000000000000000000 ) ) ;
#96 = EDGE_LOOP ( 'NONE', ( #18 ) ) ;
#97 = AXIS2_PLACEMENT_3D ( 'NONE', #165, #243, #65 ) ;
#98 = EDGE_LOOP ( 'NONE', ( #160 ) ) ;
#99 = EDGE_LOOP ( 'NONE', ( #169 ) ) ;
#100 = FACE_OUTER_BOUND ( 'NONE', #198, .T. ) ;
#101 = ADVANCED_FACE ( 'NONE', ( #100, #260 ), #172, .T. ) ;
#102 = CARTESIAN_POINT ( 'NONE',  ( 3.449999999999999734, 0.000000000000000000, 0.000000000000000000 ) ) ;
#103 = DIRECTION ( 'NONE',  ( 0.000000000000000000, 0.000000000000000000, -1.000000000000000000 ) ) ;
#104 = SURFACE_SIDE_STYLE ('',( #25 ) ) ;
#105 = FILL_AREA_STYLE ('',( #2 ) ) ;
#106 = ADVANCED_FACE ( 'NONE', ( #15, #53 ), #115, .T. ) ;
#107 = VERTEX_POINT ( 'NONE', #227 ) ;
#108 = PRODUCT_DEFINITION ( 'UNKNOWN', '', #138, #175 ) ;
#109 = ORIENTED_EDGE ( 'NONE', *, *, #207, .T. ) ;
#110 = AXIS2_PLACEMENT_3D ( 'NONE', #78, #193, #38 ) ;
#111 = ORIENTED_EDGE ( 'NONE', *, *, #63, .T. ) ;
#112 = CARTESIAN_POINT ( 'NONE',  ( 25.00000000000000000, 0.000000000000000000, 0.000000000000000000 ) ) ;
#113 = UNCERTAINTY_MEASURE_WITH_UNIT (LENGTH_MEASURE( 1.000000000000000082E-05 ), #206, 'distance_accuracy_value', 'NONE');
#114 = EDGE_CURVE ( 'NONE', #188, #188, #171, .T. ) ;
#115 = CYLINDRICAL_SURFACE ( 'NONE', #61, 6.999999999999999112 ) ;
#116 = COLOUR_RGB ( '',0.7764705882352941346, 0.7568627450980391913, 0.7372549019607843590 ) ;
#117 = DIRECTION ( 'NONE',  ( 0.000000000000000000, 0.000000000000000000, 1.000000000000000000 ) ) ;
#118 = ORIENTED_EDGE ( 'NONE', *, *, #164, .T. ) ;
#119 =( NAMED_UNIT ( * ) PLANE_ANGLE_UNIT ( ) SI_UNIT ( $, .RADIAN. ) );
#120 = CIRCLE ( 'NONE', #196, 4.999999999999999112 ) ;
#121 = FACE_OUTER_BOUND ( 'NONE', #99, .T. ) ;
#122 = CARTESIAN_POINT ( 'NONE',  ( 3.449999999999999734, 4.999999999999995559, 0.000000000000000000 ) ) ;
#123 = FACE_OUTER_BOUND ( 'NONE', #52, .T. ) ;
#124 = APPLICATION_PROTOCOL_DEFINITION ( 'draft international standard', 'automotive_design', 1998, #248 ) ;
#125 = SURFACE_STYLE_USAGE ( .BOTH. , #88 ) ;
#126 = CARTESIAN_POINT ( 'NONE',  ( 1.000000000000000222, 0.000000000000000000, 4.999999999999995559 ) ) ;
#127 = AXIS2_PLACEMENT_3D ( 'NONE', #163, #64, #146 ) ;
#128 =( GEOMETRIC_REPRESENTATION_CONTEXT ( 3 ) GLOBAL_UNCERTAINTY_ASSIGNED_CONTEXT ( ( #218 ) ) GLOBAL_UNIT_ASSIGNED_CONTEXT ( ( #226, #119, #223 ) ) REPRESENTATION_CONTEXT ( 'NONE', 'WORKASPACE' ) );
#129 = EDGE_LOOP ( 'NONE', ( #211 ) ) ;
#130 = ADVANCED_FACE ( 'NONE', ( #258 ), #77, .F. ) ;
#131 = DIRECTION ( 'NONE',  ( 0.000000000000000000, 0.000000000000000000, 1.000000000000000000 ) ) ;
#132 = EDGE_LOOP ( 'NONE', ( #111 ) ) ;
#133 = PRESENTATION_STYLE_ASSIGNMENT (( #125 ) ) ;
#134 = AXIS2_PLACEMENT_3D ( 'NONE', #1, #143, #183 ) ;
#135 = ORIENTED_EDGE ( 'NONE', *, *, #26, .F. ) ;
#136 = CARTESIAN_POINT ( 'NONE',  ( 0.000000000000000000, 0.000000000000000000, 0.000000000000000000 ) ) ;
#137 = DIRECTION ( 'NONE',  ( 0.000000000000000000, 0.000000000000000000, 1.000000000000000000 ) ) ;
#138 = PRODUCT_DEFINITION_FORMATION_WITH_SPECIFIED_SOURCE ( 'ANY', '', #20, .NOT_KNOWN. ) ;
#139 = FACE_OUTER_BOUND ( 'NONE', #147, .T. ) ;
#140 = DIRECTION ( 'NONE',  ( -1.000000000000000000, -0.000000000000000000, -0.000000000000000000 ) ) ;
#141 = SURFACE_STYLE_USAGE ( .BOTH. , #104 ) ;
#142 = CIRCLE ( 'NONE', #239, 6.000000000000001776 ) ;
#143 = DIRECTION ( 'NONE',  ( 1.000000000000000000, 0.000000000000000000, 0.000000000000000000 ) ) ;
#144 = CARTESIAN_POINT ( 'NONE',  ( 4.500000000000000888, 0.000000000000000000, 0.000000000000000000 ) ) ;
#145 = EDGE_CURVE ( 'NONE', #252, #252, #174, .T. ) ;
#146 = DIRECTION ( 'NONE',  ( 0.000000000000000000, 0.000000000000000000, -1.000000000000000000 ) ) ;
#147 = EDGE_LOOP ( 'NONE', ( #67 ) ) ;
#148 = CARTESIAN_POINT ( 'NONE',  ( 27.00000000000000711, 0.000000000000000000, 0.000000000000000000 ) ) ;
#149 = EDGE_LOOP ( 'NONE', ( #135 ) ) ;
#150 =( LENGTH_UNIT ( ) NAMED_UNIT ( * ) SI_UNIT ( .MILLI., .METRE. ) );
#151 = FILL_AREA_STYLE ('',( #72 ) ) ;
#152 = FACE_BOUND ( 'NONE', #257, .T. ) ;
#153 = DIRECTION ( 'NONE',  ( -1.000000000000000000, -0.000000000000000000, -0.000000000000000000 ) ) ;
#154 = AXIS2_PLACEMENT_3D ( 'NONE', #33, #153, #215 ) ;
#155 = ORIENTED_EDGE ( 'NONE', *, *, #114, .T. ) ;
#156 = CARTESIAN_POINT ( 'NONE',  ( 1.000000000000000222, 0.000000000000000000, 0.000000000000000000 ) ) ;
#157 = ADVANCED_FACE ( 'NONE', ( #43, #85 ), #185, .F. ) ;
#158 = FACE_OUTER_BOUND ( 'NONE', #209, .T. ) ;
#159 = CONICAL_SURFACE ( 'NONE', #127, 4.999999999999995559, 0.5235987755983012581 ) ;
#160 = ORIENTED_EDGE ( 'NONE', *, *, #80, .F. ) ;
#161 = DIRECTION ( 'NONE',  ( 1.000000000000000000, 0.000000000000000000, 0.000000000000000000 ) ) ;
#162 = DIRECTION ( 'NONE',  ( -1.000000000000000000, 0.000000000000000000, -0.000000000000000000 ) ) ;
#163 = CARTESIAN_POINT ( 'NONE',  ( 1.000000000000000222, 0.000000000000000000, 0.000000000000000000 ) ) ;
#164 = EDGE_CURVE ( 'NONE', #69, #69, #92, .T. ) ;
#165 = CARTESIAN_POINT ( 'NONE',  ( 4.043665667269222079E-16, 0.000000000000000000, 0.000000000000000000 ) ) ;
#166 = AXIS2_PLACEMENT_3D ( 'NONE', #112, #140, #220 ) ;
#167 =( NAMED_UNIT ( * ) SI_UNIT ( $, .STERADIAN. ) SOLID_ANGLE_UNIT ( ) );
#168 =( NAMED_UNIT ( * ) SI_UNIT ( $, .STERADIAN. ) SOLID_ANGLE_UNIT ( ) );
#169 = ORIENTED_EDGE ( 'NONE', *, *, #114, .F. ) ;
#170 = CARTESIAN_POINT ( 'NONE',  ( 4.043665667269222079E-16, 0.000000000000000000, 4.422649730810366719 ) ) ;
#171 = CIRCLE ( 'NONE', #184, 6.999999999999999112 ) ;
#172 = CYLINDRICAL_SURFACE ( 'NONE', #154, 4.999999999999995559 ) ;
#173 = ORIENTED_EDGE ( 'NONE', *, *, #63, .F. ) ;
#174 = CIRCLE ( 'NONE', #203, 4.000000000000000000 ) ;
#175 = PRODUCT_DEFINITION_CONTEXT ( 'detailed design', #68, 'design' ) ;
#176 = DIRECTION ( 'NONE',  ( -1.000000000000000000, -0.000000000000000000, -0.000000000000000000 ) ) ;
#177 = ADVANCED_FACE ( 'NONE', ( #23, #123 ), #86, .T. ) ;
#178 = ORIENTED_EDGE ( 'NONE', *, *, #207, .F. ) ;
#179 = EDGE_LOOP ( 'NONE', ( #155 ) ) ;
#180 = STYLED_ITEM ( 'NONE', ( #244 ), #224 ) ;
#181 = PLANE ( 'NONE',  #16 ) ;
#182 = EDGE_CURVE ( 'NONE', #51, #51, #71, .T. ) ;
#183 = DIRECTION ( 'NONE',  ( 0.000000000000000000, 0.000000000000000000, -1.000000000000000000 ) ) ;
#184 = AXIS2_PLACEMENT_3D ( 'NONE', #195, #17, #137 ) ;
#185 = PLANE ( 'NONE',  #251 ) ;
#186 = ADVANCED_FACE ( 'NONE', ( #6, #202 ), #249, .F. ) ;
#187 = CIRCLE ( 'NONE', #74, 4.999999999999995559 ) ;
#188 = VERTEX_POINT ( 'NONE', #31 ) ;
#189 = PRODUCT_RELATED_PRODUCT_CATEGORY ( 'part', '', ( #20 ) ) ;
#190 = ORIENTED_EDGE ( 'NONE', *, *, #76, .F. ) ;
#191 = VERTEX_POINT ( 'NONE', #126 ) ;
#192 = EDGE_LOOP ( 'NONE', ( #30 ) ) ;
#193 = DIRECTION ( 'NONE',  ( -1.000000000000000000, -0.000000000000000000, -0.000000000000000000 ) ) ;
#194 = CARTESIAN_POINT ( 'NONE',  ( 25.00000000000000000, 0.000000000000000000, 0.000000000000000000 ) ) ;
#195 = CARTESIAN_POINT ( 'NONE',  ( 26.00000000000000355, 0.000000000000000000, 0.000000000000000000 ) ) ;
#196 = AXIS2_PLACEMENT_3D ( 'NONE', #194, #14, #256 ) ;
#197 = STYLED_ITEM ( 'NONE', ( #133 ), #7 ) ;
#198 = EDGE_LOOP ( 'NONE', ( #173 ) ) ;
#199 = DIRECTION ( 'NONE',  ( -1.000000000000000000, -0.000000000000000000, -0.000000000000000000 ) ) ;
#200 = ADVANCED_FACE ( 'NONE', ( #204, #59 ), #159, .T. ) ;
#201 = CARTESIAN_POINT ( 'NONE',  ( 3.450000000000000178, 0.000000000000000000, 0.000000000000000000 ) ) ;
#202 = FACE_OUTER_BOUND ( 'NONE', #11, .T. ) ;
#203 = AXIS2_PLACEMENT_3D ( 'NONE', #201, #60, #3 ) ;
#204 = FACE_BOUND ( 'NONE', #47, .T. ) ;
#205 = DIRECTION ( 'NONE',  ( -1.000000000000000000, -0.000000000000000000, -0.000000000000000000 ) ) ;
#206 =( LENGTH_UNIT ( ) NAMED_UNIT ( * ) SI_UNIT ( .MILLI., .METRE. ) );
#207 = EDGE_CURVE ( 'NONE', #29, #29, #21, .T. ) ;
#208 = AXIS2_PLACEMENT_3D ( 'NONE', #221, #250, #62 ) ;
#209 = EDGE_LOOP ( 'NONE', ( #190 ) ) ;
#210 = DIRECTION ( 'NONE',  ( 0.000000000000000000, 0.000000000000000000, 1.000000000000000000 ) ) ;
#211 = ORIENTED_EDGE ( 'NONE', *, *, #41, .F. ) ;
#212 =( NAMED_UNIT ( * ) PLANE_ANGLE_UNIT ( ) SI_UNIT ( $, .RADIAN. ) );
#213 = MECHANICAL_DESIGN_GEOMETRIC_PRESENTATION_REPRESENTATION (  '', ( #180 ), #128 ) ;
#214 = DIRECTION ( 'NONE',  ( 0.000000000000000000, 0.000000000000000000, 1.000000000000000000 ) ) ;
#215 = DIRECTION ( 'NONE',  ( 0.000000000000000000, 0.000000000000000000, 1.000000000000000000 ) ) ;
#216 = ORIENTED_EDGE ( 'NONE', *, *, #80, .T. ) ;
#217 = COLOUR_RGB ( '',0.7764705882352941346, 0.7568627450980391913, 0.7372549019607843590 ) ;
#218 = UNCERTAINTY_MEASURE_WITH_UNIT (LENGTH_MEASURE( 1.000000000000000082E-05 ), #226, 'distance_accuracy_value', 'NONE');
#219 = ORIENTED_EDGE ( 'NONE', *, *, #76, .T. ) ;
#220 = DIRECTION ( 'NONE',  ( 0.000000000000000000, 0.000000000000000000, 1.000000000000000000 ) ) ;
#221 = CARTESIAN_POINT ( 'NONE',  ( 0.000000000000000000, 0.000000000000000000, 0.000000000000000000 ) ) ;
#222 = AXIS2_PLACEMENT_3D ( 'NONE', #237, #83, #103 ) ;
#223 =( NAMED_UNIT ( * ) SI_UNIT ( $, .STERADIAN. ) SOLID_ANGLE_UNIT ( ) );
#224 = MANIFOLD_SOLID_BREP ( 'Revolve2', #35 ) ;
#225 = DIRECTION ( 'NONE',  ( 0.000000000000000000, 0.000000000000000000, 1.000000000000000000 ) ) ;
#226 =( LENGTH_UNIT ( ) NAMED_UNIT ( * ) SI_UNIT ( .MILLI., .METRE. ) );
#227 = CARTESIAN_POINT ( 'NONE',  ( 25.00000000000000000, 0.000000000000000000, 4.999999999999999112 ) ) ;
#228 = ORIENTED_EDGE ( 'NONE', *, *, #182, .F. ) ;
#229 = CARTESIAN_POINT ( 'NONE',  ( 25.00000000000000000, 0.000000000000000000, 6.999999999999999112 ) ) ;
#230 = EDGE_LOOP ( 'NONE', ( #89 ) ) ;
#231 = CARTESIAN_POINT ( 'NONE',  ( 4.500000000000000888, 0.000000000000000000, 4.999999999999995559 ) ) ;
#232 = UNCERTAINTY_MEASURE_WITH_UNIT (LENGTH_MEASURE( 1.000000000000000082E-05 ), #150, 'distance_accuracy_value', 'NONE');
#233 = CARTESIAN_POINT ( 'NONE',  ( 27.00000000000000711, 0.000000000000000000, 0.000000000000000000 ) ) ;
#234 = PRODUCT_DEFINITION_SHAPE ( 'NONE', 'NONE',  #108 ) ;
#235 = CARTESIAN_POINT ( 'NONE',  ( 0.000000000000000000, 0.000000000000000000, 0.000000000000000000 ) ) ;
#236 = ADVANCED_FACE ( 'NONE', ( #44, #24 ), #181, .F. ) ;
#237 = CARTESIAN_POINT ( 'NONE',  ( 2.021832833634611039E-16, 4.422649730810366719, 0.000000000000000000 ) ) ;
#238 = EDGE_LOOP ( 'NONE', ( #219 ) ) ;
#239 = AXIS2_PLACEMENT_3D ( 'NONE', #95, #199, #117 ) ;
#240 = AXIS2_PLACEMENT_3D ( 'NONE', #148, #205, #210 ) ;
#241 = ADVANCED_FACE ( 'NONE', ( #121, #152 ), #56, .T. ) ;
#242 = FACE_OUTER_BOUND ( 'NONE', #129, .T. ) ;
#243 = DIRECTION ( 'NONE',  ( -1.000000000000000000, -0.000000000000000000, -0.000000000000000000 ) ) ;
#244 = PRESENTATION_STYLE_ASSIGNMENT (( #141 ) ) ;
#245 = AXIS2_PLACEMENT_3D ( 'NONE', #235, #19, #214 ) ;
#246 = AXIS2_PLACEMENT_3D ( 'NONE', #233, #259, #58 ) ;
#247 = DIRECTION ( 'NONE',  ( -0.000000000000000000, 0.000000000000000000, 1.000000000000000000 ) ) ;
#248 = APPLICATION_CONTEXT ( 'automotive_design' ) ;
#249 = PLANE ( 'NONE',  #134 ) ;
#250 = DIRECTION ( 'NONE',  ( -1.000000000000000000, -0.000000000000000000, -0.000000000000000000 ) ) ;
#251 = AXIS2_PLACEMENT_3D ( 'NONE', #122, #162, #247 ) ;
#252 = VERTEX_POINT ( 'NONE', #28 ) ;
#253 = PRODUCT_CONTEXT ( 'NONE', #248, 'mechanical' ) ;
#254 =( GEOMETRIC_REPRESENTATION_CONTEXT ( 3 ) GLOBAL_UNCERTAINTY_ASSIGNED_CONTEXT ( ( #113 ) ) GLOBAL_UNIT_ASSIGNED_CONTEXT ( ( #206, #212, #167 ) ) REPRESENTATION_CONTEXT ( 'NONE', 'WORKASPACE' ) );
#255 =( NAMED_UNIT ( * ) PLANE_ANGLE_UNIT ( ) SI_UNIT ( $, .RADIAN. ) );
#256 = DIRECTION ( 'NONE',  ( 0.000000000000000000, 0.000000000000000000, 1.000000000000000000 ) ) ;
#257 = EDGE_LOOP ( 'NONE', ( #70 ) ) ;
#258 = FACE_OUTER_BOUND ( 'NONE', #230, .T. ) ;
#259 = DIRECTION ( 'NONE',  ( -1.000000000000000000, 0.000000000000000000, -0.000000000000000000 ) ) ;
#260 = FACE_OUTER_BOUND ( 'NONE', #37, .T. ) ;
ENDSEC;
END-ISO-10303-21;
