ISO-10303-21;
HEADER;
FILE_DESCRIPTION (( 'STEP AP214' ),
    '1' );
FILE_NAME ('76.04.04.0006.step',
    '2021-04-02T18:04:32',
    ( '' ),
    ( '' ),
    'SwSTEP 2.0',
    'SolidWorks 2021',
    '' );
FILE_SCHEMA (( 'AUTOMOTIVE_DESIGN' ));
ENDSEC;

DATA;
#1 = FACE_OUTER_BOUND ( 'NONE', #248, .T. ) ;
#2 = AXIS2_PLACEMENT_3D ( 'NONE', #183, #235, #260 ) ;
#3 = EDGE_CURVE ( 'NONE', #203, #203, #24, .T. ) ;
#4 = CARTESIAN_POINT ( 'NONE',  ( 4.349999999999997868, 0.000000000000000000, 4.500000000000000000 ) ) ;
#5 = APPLICATION_PROTOCOL_DEFINITION ( 'draft international standard', 'automotive_design', 1998, #19 ) ;
#6 = STYLED_ITEM ( 'NONE', ( #175 ), #54 ) ;
#7 = EDGE_LOOP ( 'NONE', ( #76 ) ) ;
#8 = FILL_AREA_STYLE ('',( #81 ) ) ;
#9 = CYLINDRICAL_SURFACE ( 'NONE', #177, 5.999999999999996447 ) ;
#10 = DIRECTION ( 'NONE',  ( -1.000000000000000000, -0.000000000000000000, -0.000000000000000000 ) ) ;
#11 = CIRCLE ( 'NONE', #69, 5.999999999999996447 ) ;
#12 = SURFACE_SIDE_STYLE ('',( #194 ) ) ;
#13 = CARTESIAN_POINT ( 'NONE',  ( 0.000000000000000000, 0.000000000000000000, 0.000000000000000000 ) ) ;
#14 = CARTESIAN_POINT ( 'NONE',  ( 0.000000000000000000, 0.000000000000000000, 0.000000000000000000 ) ) ;
#15 =( NAMED_UNIT ( * ) SI_UNIT ( $, .STERADIAN. ) SOLID_ANGLE_UNIT ( ) );
#16 = DIRECTION ( 'NONE',  ( 0.000000000000000000, 0.000000000000000000, 1.000000000000000000 ) ) ;
#17 = ADVANCED_FACE ( 'NONE', ( #157, #39 ), #59, .T. ) ;
#18 = PLANE ( 'NONE',  #2 ) ;
#19 = APPLICATION_CONTEXT ( 'automotive_design' ) ;
#20 = AXIS2_PLACEMENT_3D ( 'NONE', #66, #110, #16 ) ;
#21 = UNCERTAINTY_MEASURE_WITH_UNIT (LENGTH_MEASURE( 1.000000000000000082E-05 ), #82, 'distance_accuracy_value', 'NONE');
#22 = EDGE_CURVE ( 'NONE', #130, #130, #253, .T. ) ;
#23 =( NAMED_UNIT ( * ) SI_UNIT ( $, .STERADIAN. ) SOLID_ANGLE_UNIT ( ) );
#24 = CIRCLE ( 'NONE', #34, 5.999999999999994671 ) ;
#25 = CIRCLE ( 'NONE', #131, 4.500000000000000000 ) ;
#26 = VERTEX_POINT ( 'NONE', #185 ) ;
#27 = EDGE_CURVE ( 'NONE', #240, #240, #242, .T. ) ;
#28 = CARTESIAN_POINT ( 'NONE',  ( 33.00000000000000000, 0.000000000000000000, 7.000000000000001776 ) ) ;
#29 = ORIENTED_EDGE ( 'NONE', *, *, #3, .F. ) ;
#30 =( LENGTH_UNIT ( ) NAMED_UNIT ( * ) SI_UNIT ( .MILLI., .METRE. ) );
#31 = EDGE_LOOP ( 'NONE', ( #29 ) ) ;
#32 = COLOUR_RGB ( '',0.8274509803921568096, 0.8392156862745098200, 0.8274509803921568096 ) ;
#33 = DIRECTION ( 'NONE',  ( -1.000000000000000000, -0.000000000000000000, -0.000000000000000000 ) ) ;
#34 = AXIS2_PLACEMENT_3D ( 'NONE', #213, #156, #246 ) ;
#35 = FACE_OUTER_BOUND ( 'NONE', #135, .T. ) ;
#36 = DIRECTION ( 'NONE',  ( 1.000000000000000000, 0.000000000000000000, 0.000000000000000000 ) ) ;
#37 = PRODUCT_DEFINITION_CONTEXT ( 'detailed design', #19, 'design' ) ;
#38 = EDGE_LOOP ( 'NONE', ( #170 ) ) ;
#39 = FACE_OUTER_BOUND ( 'NONE', #229, .T. ) ;
#40 = FACE_OUTER_BOUND ( 'NONE', #172, .T. ) ;
#41 = DIRECTION ( 'NONE',  ( -1.000000000000000000, -0.000000000000000000, -0.000000000000000000 ) ) ;
#42 = DIRECTION ( 'NONE',  ( -1.000000000000000000, -0.000000000000000000, -0.000000000000000000 ) ) ;
#43 = ADVANCED_FACE ( 'NONE', ( #176, #215 ), #100, .T. ) ;
#44 = VERTEX_POINT ( 'NONE', #4 ) ;
#45 = AXIS2_PLACEMENT_3D ( 'NONE', #89, #221, #236 ) ;
#46 = FILL_AREA_STYLE ('',( #202 ) ) ;
#47 = ORIENTED_EDGE ( 'NONE', *, *, #77, .T. ) ;
#48 = CARTESIAN_POINT ( 'NONE',  ( 4.349999999999997868, 0.000000000000000000, 5.999999999999996447 ) ) ;
#49 = ORIENTED_EDGE ( 'NONE', *, *, #150, .F. ) ;
#50 = ADVANCED_FACE ( 'NONE', ( #102, #35 ), #9, .T. ) ;
#51 =( GEOMETRIC_REPRESENTATION_CONTEXT ( 3 ) GLOBAL_UNCERTAINTY_ASSIGNED_CONTEXT ( ( #21 ) ) GLOBAL_UNIT_ASSIGNED_CONTEXT ( ( #82, #57, #15 ) ) REPRESENTATION_CONTEXT ( 'NONE', 'WORKASPACE' ) );
#52 = DIRECTION ( 'NONE',  ( 0.000000000000000000, 0.000000000000000000, 1.000000000000000000 ) ) ;
#53 = EDGE_LOOP ( 'NONE', ( #250 ) ) ;
#54 = MANIFOLD_SOLID_BREP ( 'Revolve2', #247 ) ;
#55 = EDGE_LOOP ( 'NONE', ( #97 ) ) ;
#56 = CARTESIAN_POINT ( 'NONE',  ( 4.585766753511974789E-16, 0.000000000000000000, 0.000000000000000000 ) ) ;
#57 =( NAMED_UNIT ( * ) PLANE_ANGLE_UNIT ( ) SI_UNIT ( $, .RADIAN. ) );
#58 = PRODUCT_DEFINITION_FORMATION_WITH_SPECIFIED_SOURCE ( 'ANY', '', #145, .NOT_KNOWN. ) ;
#59 = CYLINDRICAL_SURFACE ( 'NONE', #109, 4.500000000000000000 ) ;
#60 = ADVANCED_BREP_SHAPE_REPRESENTATION ( '76.04.04.0006', ( #54, #243 ), #214 ) ;
#61 = FACE_OUTER_BOUND ( 'NONE', #206, .T. ) ;
#62 = EDGE_CURVE ( 'NONE', #70, #70, #25, .T. ) ;
#63 = UNCERTAINTY_MEASURE_WITH_UNIT (LENGTH_MEASURE( 1.000000000000000082E-05 ), #30, 'distance_accuracy_value', 'NONE');
#64 = CARTESIAN_POINT ( 'NONE',  ( 30.00000000000000000, 8.499999999999998224, 0.000000000000000000 ) ) ;
#65 = MECHANICAL_DESIGN_GEOMETRIC_PRESENTATION_REPRESENTATION (  '', ( #6 ), #51 ) ;
#66 = CARTESIAN_POINT ( 'NONE',  ( 31.50000000000000000, 0.000000000000000000, 0.000000000000000000 ) ) ;
#67 = CARTESIAN_POINT ( 'NONE',  ( 5.499999999999998224, 4.500000000000000000, 0.000000000000000000 ) ) ;
#68 = PLANE ( 'NONE',  #209 ) ;
#69 = AXIS2_PLACEMENT_3D ( 'NONE', #162, #41, #163 ) ;
#70 = VERTEX_POINT ( 'NONE', #128 ) ;
#71 = CARTESIAN_POINT ( 'NONE',  ( 1.250000000000000000, 0.000000000000000000, 0.000000000000000000 ) ) ;
#72 = PRODUCT_DEFINITION ( 'UNKNOWN', '', #58, #37 ) ;
#73 = CIRCLE ( 'NONE', #193, 5.999999999999998224 ) ;
#74 = FACE_BOUND ( 'NONE', #244, .T. ) ;
#75 = EDGE_LOOP ( 'NONE', ( #119 ) ) ;
#76 = ORIENTED_EDGE ( 'NONE', *, *, #216, .T. ) ;
#77 = EDGE_CURVE ( 'NONE', #113, #113, #11, .T. ) ;
#78 = ORIENTED_EDGE ( 'NONE', *, *, #22, .T. ) ;
#79 = ORIENTED_EDGE ( 'NONE', *, *, #150, .T. ) ;
#80 = EDGE_CURVE ( 'NONE', #91, #91, #249, .T. ) ;
#81 = FILL_AREA_STYLE_COLOUR ( '', #32 ) ;
#82 =( LENGTH_UNIT ( ) NAMED_UNIT ( * ) SI_UNIT ( .MILLI., .METRE. ) );
#83 = DIRECTION ( 'NONE',  ( -0.000000000000000000, 0.000000000000000000, 1.000000000000000000 ) ) ;
#84 = ADVANCED_FACE ( 'NONE', ( #108, #1 ), #68, .F. ) ;
#85 = DIRECTION ( 'NONE',  ( -1.000000000000000000, 0.000000000000000000, -0.000000000000000000 ) ) ;
#86 = DIRECTION ( 'NONE',  ( 1.000000000000000000, 0.000000000000000000, 0.000000000000000000 ) ) ;
#87 = CIRCLE ( 'NONE', #90, 8.499999999999998224 ) ;
#88 = DIRECTION ( 'NONE',  ( 0.000000000000000000, 0.000000000000000000, 1.000000000000000000 ) ) ;
#89 = CARTESIAN_POINT ( 'NONE',  ( 4.349999999999997868, 5.999999999999996447, 0.000000000000000000 ) ) ;
#90 = AXIS2_PLACEMENT_3D ( 'NONE', #200, #238, #122 ) ;
#91 = VERTEX_POINT ( 'NONE', #134 ) ;
#92 = APPLICATION_PROTOCOL_DEFINITION ( 'draft international standard', 'automotive_design', 1998, #116 ) ;
#93 = SURFACE_STYLE_USAGE ( .BOTH. , #114 ) ;
#94 = AXIS2_PLACEMENT_3D ( 'NONE', #212, #10, #138 ) ;
#95 =( NAMED_UNIT ( * ) PLANE_ANGLE_UNIT ( ) SI_UNIT ( $, .RADIAN. ) );
#96 = ORIENTED_EDGE ( 'NONE', *, *, #232, .F. ) ;
#97 = ORIENTED_EDGE ( 'NONE', *, *, #27, .F. ) ;
#98 = ORIENTED_EDGE ( 'NONE', *, *, #80, .T. ) ;
#99 = PRESENTATION_LAYER_ASSIGNMENT (  '', '', ( #259 ) ) ;
#100 = CYLINDRICAL_SURFACE ( 'NONE', #148, 8.499999999999998224 ) ;
#101 = EDGE_LOOP ( 'NONE', ( #98 ) ) ;
#102 = FACE_OUTER_BOUND ( 'NONE', #118, .T. ) ;
#103 = CIRCLE ( 'NONE', #115, 4.500000000000000000 ) ;
#104 = ADVANCED_FACE ( 'NONE', ( #146 ), #196, .F. ) ;
#105 = DIRECTION ( 'NONE',  ( 0.000000000000000000, 0.000000000000000000, 1.000000000000000000 ) ) ;
#106 = DIRECTION ( 'NONE',  ( -1.000000000000000000, -0.000000000000000000, -0.000000000000000000 ) ) ;
#107 = FACE_OUTER_BOUND ( 'NONE', #191, .T. ) ;
#108 = FACE_BOUND ( 'NONE', #75, .T. ) ;
#109 = AXIS2_PLACEMENT_3D ( 'NONE', #14, #33, #192 ) ;
#110 = DIRECTION ( 'NONE',  ( -1.000000000000000000, -0.000000000000000000, -0.000000000000000000 ) ) ;
#111 = DIRECTION ( 'NONE',  ( 0.000000000000000000, 0.000000000000000000, -1.000000000000000000 ) ) ;
#112 = ADVANCED_FACE ( 'NONE', ( #255, #40 ), #124, .T. ) ;
#113 = VERTEX_POINT ( 'NONE', #48 ) ;
#114 = SURFACE_SIDE_STYLE ('',( #205 ) ) ;
#115 = AXIS2_PLACEMENT_3D ( 'NONE', #256, #42, #125 ) ;
#116 = APPLICATION_CONTEXT ( 'automotive_design' ) ;
#117 = ORIENTED_EDGE ( 'NONE', *, *, #62, .T. ) ;
#118 = EDGE_LOOP ( 'NONE', ( #189 ) ) ;
#119 = ORIENTED_EDGE ( 'NONE', *, *, #62, .F. ) ;
#120 = EDGE_LOOP ( 'NONE', ( #133 ) ) ;
#121 = ADVANCED_FACE ( 'NONE', ( #61, #198 ), #220, .F. ) ;
#122 = DIRECTION ( 'NONE',  ( 0.000000000000000000, 0.000000000000000000, 1.000000000000000000 ) ) ;
#123 = CIRCLE ( 'NONE', #20, 8.499999999999998224 ) ;
#124 = CYLINDRICAL_SURFACE ( 'NONE', #204, 5.999999999999996447 ) ;
#125 = DIRECTION ( 'NONE',  ( 0.000000000000000000, 0.000000000000000000, 1.000000000000000000 ) ) ;
#126 = DIRECTION ( 'NONE',  ( -1.000000000000000000, -0.000000000000000000, -0.000000000000000000 ) ) ;
#127 = FACE_BOUND ( 'NONE', #153, .T. ) ;
#128 = CARTESIAN_POINT ( 'NONE',  ( 5.499999999999998224, 0.000000000000000000, 4.500000000000000000 ) ) ;
#129 =( NAMED_UNIT ( * ) SI_UNIT ( $, .STERADIAN. ) SOLID_ANGLE_UNIT ( ) );
#130 = VERTEX_POINT ( 'NONE', #226 ) ;
#131 = AXIS2_PLACEMENT_3D ( 'NONE', #140, #199, #88 ) ;
#132 =( NAMED_UNIT ( * ) PLANE_ANGLE_UNIT ( ) SI_UNIT ( $, .RADIAN. ) );
#133 = ORIENTED_EDGE ( 'NONE', *, *, #181, .F. ) ;
#134 = CARTESIAN_POINT ( 'NONE',  ( 1.250000000000000000, 0.000000000000000000, 5.999999999999996447 ) ) ;
#135 = EDGE_LOOP ( 'NONE', ( #47 ) ) ;
#136 = ORIENTED_EDGE ( 'NONE', *, *, #3, .T. ) ;
#137 = EDGE_LOOP ( 'NONE', ( #78 ) ) ;
#138 = DIRECTION ( 'NONE',  ( 0.000000000000000000, 0.000000000000000000, 1.000000000000000000 ) ) ;
#139 = AXIS2_PLACEMENT_3D ( 'NONE', #71, #225, #111 ) ;
#140 = CARTESIAN_POINT ( 'NONE',  ( 5.499999999999998224, 0.000000000000000000, 0.000000000000000000 ) ) ;
#141 = DIRECTION ( 'NONE',  ( 0.000000000000000000, 0.000000000000000000, 1.000000000000000000 ) ) ;
#142 = CARTESIAN_POINT ( 'NONE',  ( 33.00000000000000000, 0.000000000000000000, 0.000000000000000000 ) ) ;
#143 = CARTESIAN_POINT ( 'NONE',  ( 33.00000000000000000, 0.000000000000000000, 0.000000000000000000 ) ) ;
#144 = FACE_OUTER_BOUND ( 'NONE', #137, .T. ) ;
#145 = PRODUCT ( '76.04.04.0006', '76.04.04.0006', '', ( #167 ) ) ;
#146 = FACE_OUTER_BOUND ( 'NONE', #55, .T. ) ;
#147 = DIRECTION ( 'NONE',  ( 0.000000000000000000, 0.000000000000000000, -1.000000000000000000 ) ) ;
#148 = AXIS2_PLACEMENT_3D ( 'NONE', #154, #190, #174 ) ;
#149 = CONICAL_SURFACE ( 'NONE', #217, 7.000000000000001776, 0.7853981633974468357 ) ;
#150 = EDGE_CURVE ( 'NONE', #188, #188, #123, .T. ) ;
#151 = DIRECTION ( 'NONE',  ( -1.000000000000000000, -0.000000000000000000, -0.000000000000000000 ) ) ;
#152 =( LENGTH_UNIT ( ) NAMED_UNIT ( * ) SI_UNIT ( .MILLI., .METRE. ) );
#153 = EDGE_LOOP ( 'NONE', ( #96 ) ) ;
#154 = CARTESIAN_POINT ( 'NONE',  ( 0.000000000000000000, 0.000000000000000000, 0.000000000000000000 ) ) ;
#155 = AXIS2_PLACEMENT_3D ( 'NONE', #239, #126, #201 ) ;
#156 = DIRECTION ( 'NONE',  ( -1.000000000000000000, -0.000000000000000000, -0.000000000000000000 ) ) ;
#157 = FACE_OUTER_BOUND ( 'NONE', #120, .T. ) ;
#158 = SURFACE_STYLE_USAGE ( .BOTH. , #12 ) ;
#159 = CARTESIAN_POINT ( 'NONE',  ( 0.000000000000000000, 0.000000000000000000, 0.000000000000000000 ) ) ;
#160 = FACE_OUTER_BOUND ( 'NONE', #7, .T. ) ;
#161 = MECHANICAL_DESIGN_GEOMETRIC_PRESENTATION_REPRESENTATION (  '', ( #259 ), #254 ) ;
#162 = CARTESIAN_POINT ( 'NONE',  ( 4.349999999999997868, 0.000000000000000000, 0.000000000000000000 ) ) ;
#163 = DIRECTION ( 'NONE',  ( 0.000000000000000000, 0.000000000000000000, 1.000000000000000000 ) ) ;
#164 = DIRECTION ( 'NONE',  ( 0.000000000000000000, 0.000000000000000000, 1.000000000000000000 ) ) ;
#165 = CARTESIAN_POINT ( 'NONE',  ( 5.499999999999998224, 0.000000000000000000, 5.999999999999994671 ) ) ;
#166 = CARTESIAN_POINT ( 'NONE',  ( 31.50000000000000000, 0.000000000000000000, 8.499999999999998224 ) ) ;
#167 = PRODUCT_CONTEXT ( 'NONE', #116, 'mechanical' ) ;
#168 = PRESENTATION_STYLE_ASSIGNMENT (( #93 ) ) ;
#169 = EDGE_LOOP ( 'NONE', ( #195 ) ) ;
#170 = ORIENTED_EDGE ( 'NONE', *, *, #181, .T. ) ;
#171 = SHAPE_DEFINITION_REPRESENTATION ( #219, #60 ) ;
#172 = EDGE_LOOP ( 'NONE', ( #233 ) ) ;
#173 = COLOUR_RGB ( '',0.8274509803921568096, 0.8392156862745098200, 0.8274509803921568096 ) ;
#174 = DIRECTION ( 'NONE',  ( 0.000000000000000000, 0.000000000000000000, 1.000000000000000000 ) ) ;
#175 = PRESENTATION_STYLE_ASSIGNMENT (( #158 ) ) ;
#176 = FACE_OUTER_BOUND ( 'NONE', #169, .T. ) ;
#177 = AXIS2_PLACEMENT_3D ( 'NONE', #230, #210, #141 ) ;
#178 = UNCERTAINTY_MEASURE_WITH_UNIT (LENGTH_MEASURE( 1.000000000000000082E-05 ), #152, 'distance_accuracy_value', 'NONE');
#179 = CARTESIAN_POINT ( 'NONE',  ( 30.00000000000000000, 0.000000000000000000, 0.000000000000000000 ) ) ;
#180 = DIRECTION ( 'NONE',  ( 1.000000000000000000, 0.000000000000000000, 0.000000000000000000 ) ) ;
#181 = EDGE_CURVE ( 'NONE', #44, #44, #103, .T. ) ;
#182 = FACE_BOUND ( 'NONE', #53, .T. ) ;
#183 = CARTESIAN_POINT ( 'NONE',  ( 2.292883376755987394E-16, 5.278312163512961952, 0.000000000000000000 ) ) ;
#184 = PLANE ( 'NONE',  #197 ) ;
#185 = CARTESIAN_POINT ( 'NONE',  ( 30.00000000000000000, 0.000000000000000000, 5.999999999999998224 ) ) ;
#186 = PRESENTATION_LAYER_ASSIGNMENT (  '', '', ( #6 ) ) ;
#187 = DIRECTION ( 'NONE',  ( 0.000000000000000000, 0.000000000000000000, 1.000000000000000000 ) ) ;
#188 = VERTEX_POINT ( 'NONE', #166 ) ;
#189 = ORIENTED_EDGE ( 'NONE', *, *, #80, .F. ) ;
#190 = DIRECTION ( 'NONE',  ( -1.000000000000000000, -0.000000000000000000, -0.000000000000000000 ) ) ;
#191 = EDGE_LOOP ( 'NONE', ( #49 ) ) ;
#192 = DIRECTION ( 'NONE',  ( 0.000000000000000000, 0.000000000000000000, 1.000000000000000000 ) ) ;
#193 = AXIS2_PLACEMENT_3D ( 'NONE', #179, #151, #187 ) ;
#194 = SURFACE_STYLE_FILL_AREA ( #8 ) ;
#195 = ORIENTED_EDGE ( 'NONE', *, *, #216, .F. ) ;
#196 = PLANE ( 'NONE',  #222 ) ;
#197 = AXIS2_PLACEMENT_3D ( 'NONE', #64, #86, #218 ) ;
#198 = FACE_BOUND ( 'NONE', #38, .T. ) ;
#199 = DIRECTION ( 'NONE',  ( -1.000000000000000000, -0.000000000000000000, -0.000000000000000000 ) ) ;
#200 = CARTESIAN_POINT ( 'NONE',  ( 30.00000000000000000, 0.000000000000000000, 0.000000000000000000 ) ) ;
#201 = DIRECTION ( 'NONE',  ( 0.000000000000000000, 0.000000000000000000, 1.000000000000000000 ) ) ;
#202 = FILL_AREA_STYLE_COLOUR ( '', #173 ) ;
#203 = VERTEX_POINT ( 'NONE', #165 ) ;
#204 = AXIS2_PLACEMENT_3D ( 'NONE', #159, #106, #105 ) ;
#205 = SURFACE_STYLE_FILL_AREA ( #46 ) ;
#206 = EDGE_LOOP ( 'NONE', ( #228 ) ) ;
#207 = ADVANCED_FACE ( 'NONE', ( #127, #160 ), #184, .F. ) ;
#208 = ORIENTED_EDGE ( 'NONE', *, *, #22, .F. ) ;
#209 = AXIS2_PLACEMENT_3D ( 'NONE', #67, #180, #147 ) ;
#210 = DIRECTION ( 'NONE',  ( -1.000000000000000000, -0.000000000000000000, -0.000000000000000000 ) ) ;
#211 = ADVANCED_FACE ( 'NONE', ( #107, #182 ), #149, .T. ) ;
#212 = CARTESIAN_POINT ( 'NONE',  ( 33.00000000000000000, 0.000000000000000000, 0.000000000000000000 ) ) ;
#213 = CARTESIAN_POINT ( 'NONE',  ( 5.499999999999998224, 0.000000000000000000, 0.000000000000000000 ) ) ;
#214 =( GEOMETRIC_REPRESENTATION_CONTEXT ( 3 ) GLOBAL_UNCERTAINTY_ASSIGNED_CONTEXT ( ( #63 ) ) GLOBAL_UNIT_ASSIGNED_CONTEXT ( ( #30, #132, #129 ) ) REPRESENTATION_CONTEXT ( 'NONE', 'WORKASPACE' ) );
#215 = FACE_OUTER_BOUND ( 'NONE', #251, .T. ) ;
#216 = EDGE_CURVE ( 'NONE', #241, #241, #87, .T. ) ;
#217 = AXIS2_PLACEMENT_3D ( 'NONE', #142, #257, #164 ) ;
#218 = DIRECTION ( 'NONE',  ( 0.000000000000000000, 0.000000000000000000, -1.000000000000000000 ) ) ;
#219 = PRODUCT_DEFINITION_SHAPE ( 'NONE', 'NONE',  #72 ) ;
#220 = PLANE ( 'NONE',  #45 ) ;
#221 = DIRECTION ( 'NONE',  ( -1.000000000000000000, 0.000000000000000000, -0.000000000000000000 ) ) ;
#222 = AXIS2_PLACEMENT_3D ( 'NONE', #143, #85, #83 ) ;
#223 = FACE_OUTER_BOUND ( 'NONE', #101, .T. ) ;
#224 = ADVANCED_FACE ( 'NONE', ( #144 ), #18, .F. ) ;
#225 = DIRECTION ( 'NONE',  ( 1.000000000000000000, 0.000000000000000000, 0.000000000000000000 ) ) ;
#226 = CARTESIAN_POINT ( 'NONE',  ( 4.585766753511974789E-16, 0.000000000000000000, 5.278312163512961952 ) ) ;
#227 = CONICAL_SURFACE ( 'NONE', #139, 5.999999999999996447, 0.5235987755983003700 ) ;
#228 = ORIENTED_EDGE ( 'NONE', *, *, #77, .F. ) ;
#229 = EDGE_LOOP ( 'NONE', ( #117 ) ) ;
#230 = CARTESIAN_POINT ( 'NONE',  ( 0.000000000000000000, 0.000000000000000000, 0.000000000000000000 ) ) ;
#231 = DIRECTION ( 'NONE',  ( 0.000000000000000000, 0.000000000000000000, 1.000000000000000000 ) ) ;
#232 = EDGE_CURVE ( 'NONE', #26, #26, #73, .T. ) ;
#233 = ORIENTED_EDGE ( 'NONE', *, *, #232, .T. ) ;
#234 = DIRECTION ( 'NONE',  ( -1.000000000000000000, -0.000000000000000000, -0.000000000000000000 ) ) ;
#235 = DIRECTION ( 'NONE',  ( 1.000000000000000000, 0.000000000000000000, 0.000000000000000000 ) ) ;
#236 = DIRECTION ( 'NONE',  ( -0.000000000000000000, 0.000000000000000000, 1.000000000000000000 ) ) ;
#237 = ADVANCED_FACE ( 'NONE', ( #74, #223 ), #227, .T. ) ;
#238 = DIRECTION ( 'NONE',  ( -1.000000000000000000, -0.000000000000000000, -0.000000000000000000 ) ) ;
#239 = CARTESIAN_POINT ( 'NONE',  ( 1.250000000000000000, 0.000000000000000000, 0.000000000000000000 ) ) ;
#240 = VERTEX_POINT ( 'NONE', #28 ) ;
#241 = VERTEX_POINT ( 'NONE', #245 ) ;
#242 = CIRCLE ( 'NONE', #94, 7.000000000000001776 ) ;
#243 = AXIS2_PLACEMENT_3D ( 'NONE', #13, #52, #36 ) ;
#244 = EDGE_LOOP ( 'NONE', ( #208 ) ) ;
#245 = CARTESIAN_POINT ( 'NONE',  ( 30.00000000000000000, 0.000000000000000000, 8.499999999999998224 ) ) ;
#246 = DIRECTION ( 'NONE',  ( 0.000000000000000000, 0.000000000000000000, 1.000000000000000000 ) ) ;
#247 = CLOSED_SHELL ( 'NONE', ( #104, #211, #43, #207, #112, #84, #17, #121, #50, #237, #224 ) ) ;
#248 = EDGE_LOOP ( 'NONE', ( #136 ) ) ;
#249 = CIRCLE ( 'NONE', #155, 5.999999999999996447 ) ;
#250 = ORIENTED_EDGE ( 'NONE', *, *, #27, .T. ) ;
#251 = EDGE_LOOP ( 'NONE', ( #79 ) ) ;
#252 = PRODUCT_RELATED_PRODUCT_CATEGORY ( 'part', '', ( #145 ) ) ;
#253 = CIRCLE ( 'NONE', #258, 5.278312163512961952 ) ;
#254 =( GEOMETRIC_REPRESENTATION_CONTEXT ( 3 ) GLOBAL_UNCERTAINTY_ASSIGNED_CONTEXT ( ( #178 ) ) GLOBAL_UNIT_ASSIGNED_CONTEXT ( ( #152, #95, #23 ) ) REPRESENTATION_CONTEXT ( 'NONE', 'WORKASPACE' ) );
#255 = FACE_OUTER_BOUND ( 'NONE', #31, .T. ) ;
#256 = CARTESIAN_POINT ( 'NONE',  ( 4.349999999999997868, 0.000000000000000000, 0.000000000000000000 ) ) ;
#257 = DIRECTION ( 'NONE',  ( -1.000000000000000000, -0.000000000000000000, -0.000000000000000000 ) ) ;
#258 = AXIS2_PLACEMENT_3D ( 'NONE', #56, #234, #231 ) ;
#259 = STYLED_ITEM ( 'NONE', ( #168 ), #60 ) ;
#260 = DIRECTION ( 'NONE',  ( 0.000000000000000000, 0.000000000000000000, -1.000000000000000000 ) ) ;
ENDSEC;
END-ISO-10303-21;
