ISO-10303-21;
HEADER;
FILE_DESCRIPTION (( 'STEP AP214' ),
    '1' );
FILE_NAME ('76.04.04.0005.step',
    '2021-04-02T18:04:29',
    ( '' ),
    ( '' ),
    'SwSTEP 2.0',
    'SolidWorks 2021',
    '' );
FILE_SCHEMA (( 'AUTOMOTIVE_DESIGN' ));
ENDSEC;

DATA;
#1 = FILL_AREA_STYLE ('',( #241 ) ) ;
#2 = EDGE_CURVE ( 'NONE', #183, #183, #109, .T. ) ;
#3 = EDGE_LOOP ( 'NONE', ( #31 ) ) ;
#4 = AXIS2_PLACEMENT_3D ( 'NONE', #253, #9, #33 ) ;
#5 = PRODUCT_CONTEXT ( 'NONE', #62, 'mechanical' ) ;
#6 = EDGE_LOOP ( 'NONE', ( #77 ) ) ;
#7 = CARTESIAN_POINT ( 'NONE',  ( 27.00000000000000355, 0.000000000000000000, 0.000000000000000000 ) ) ;
#8 = ADVANCED_FACE ( 'NONE', ( #176, #82 ), #248, .T. ) ;
#9 = DIRECTION ( 'NONE',  ( -1.000000000000000000, -0.000000000000000000, -0.000000000000000000 ) ) ;
#10 = CARTESIAN_POINT ( 'NONE',  ( 27.00000000000000355, 0.000000000000000000, 0.000000000000000000 ) ) ;
#11 = DIRECTION ( 'NONE',  ( 0.000000000000000000, 0.000000000000000000, 1.000000000000000000 ) ) ;
#12 = EDGE_CURVE ( 'NONE', #203, #203, #186, .T. ) ;
#13 = ORIENTED_EDGE ( 'NONE', *, *, #113, .T. ) ;
#14 = UNCERTAINTY_MEASURE_WITH_UNIT (LENGTH_MEASURE( 1.000000000000000082E-05 ), #61, 'distance_accuracy_value', 'NONE');
#15 = CARTESIAN_POINT ( 'NONE',  ( 26.00000000000000355, 0.000000000000000000, 7.000000000000000888 ) ) ;
#16 = PRESENTATION_LAYER_ASSIGNMENT (  '', '', ( #243 ) ) ;
#17 = FACE_BOUND ( 'NONE', #196, .T. ) ;
#18 = EDGE_CURVE ( 'NONE', #197, #197, #80, .T. ) ;
#19 = FACE_OUTER_BOUND ( 'NONE', #6, .T. ) ;
#20 = DIRECTION ( 'NONE',  ( -1.000000000000000000, -0.000000000000000000, -0.000000000000000000 ) ) ;
#21 = FACE_BOUND ( 'NONE', #166, .T. ) ;
#22 = ADVANCED_FACE ( 'NONE', ( #250, #51 ), #154, .T. ) ;
#23 = CARTESIAN_POINT ( 'NONE',  ( 4.500000000000000888, 0.000000000000000000, 4.999999999999999112 ) ) ;
#24 = AXIS2_PLACEMENT_3D ( 'NONE', #50, #49, #214 ) ;
#25 = PRODUCT_DEFINITION_FORMATION_WITH_SPECIFIED_SOURCE ( 'ANY', '', #220, .NOT_KNOWN. ) ;
#26 = CARTESIAN_POINT ( 'NONE',  ( 27.00000000000000355, 0.000000000000000000, 6.000000000000003553 ) ) ;
#27 = PRESENTATION_STYLE_ASSIGNMENT (( #187 ) ) ;
#28 = EDGE_LOOP ( 'NONE', ( #246 ) ) ;
#29 = AXIS2_PLACEMENT_3D ( 'NONE', #232, #234, #107 ) ;
#30 = AXIS2_PLACEMENT_3D ( 'NONE', #34, #195, #11 ) ;
#31 = ORIENTED_EDGE ( 'NONE', *, *, #164, .T. ) ;
#32 = DIRECTION ( 'NONE',  ( 0.000000000000000000, 0.000000000000000000, 1.000000000000000000 ) ) ;
#33 = DIRECTION ( 'NONE',  ( 0.000000000000000000, 0.000000000000000000, 1.000000000000000000 ) ) ;
#34 = CARTESIAN_POINT ( 'NONE',  ( 3.449999999999999734, 0.000000000000000000, 0.000000000000000000 ) ) ;
#35 = DIRECTION ( 'NONE',  ( -0.000000000000000000, 0.000000000000000000, 1.000000000000000000 ) ) ;
#36 = DIRECTION ( 'NONE',  ( 0.000000000000000000, 0.000000000000000000, 1.000000000000000000 ) ) ;
#37 = FACE_BOUND ( 'NONE', #28, .T. ) ;
#38 =( GEOMETRIC_REPRESENTATION_CONTEXT ( 3 ) GLOBAL_UNCERTAINTY_ASSIGNED_CONTEXT ( ( #161 ) ) GLOBAL_UNIT_ASSIGNED_CONTEXT ( ( #258, #58, #239 ) ) REPRESENTATION_CONTEXT ( 'NONE', 'WORKASPACE' ) );
#39 = CYLINDRICAL_SURFACE ( 'NONE', #194, 4.999999999999999112 ) ;
#40 = CIRCLE ( 'NONE', #255, 6.000000000000003553 ) ;
#41 =( GEOMETRIC_REPRESENTATION_CONTEXT ( 3 ) GLOBAL_UNCERTAINTY_ASSIGNED_CONTEXT ( ( #237 ) ) GLOBAL_UNIT_ASSIGNED_CONTEXT ( ( #141, #120, #63 ) ) REPRESENTATION_CONTEXT ( 'NONE', 'WORKASPACE' ) );
#42 = VERTEX_POINT ( 'NONE', #122 ) ;
#43 = ORIENTED_EDGE ( 'NONE', *, *, #130, .T. ) ;
#44 = ORIENTED_EDGE ( 'NONE', *, *, #75, .T. ) ;
#45 = AXIS2_PLACEMENT_3D ( 'NONE', #10, #132, #215 ) ;
#46 = ADVANCED_FACE ( 'NONE', ( #252, #153 ), #191, .F. ) ;
#47 = PRESENTATION_LAYER_ASSIGNMENT (  '', '', ( #228 ) ) ;
#48 = DIRECTION ( 'NONE',  ( -1.000000000000000000, -0.000000000000000000, -0.000000000000000000 ) ) ;
#49 = DIRECTION ( 'NONE',  ( -1.000000000000000000, -0.000000000000000000, -0.000000000000000000 ) ) ;
#50 = CARTESIAN_POINT ( 'NONE',  ( 0.000000000000000000, 0.000000000000000000, 0.000000000000000000 ) ) ;
#51 = FACE_BOUND ( 'NONE', #169, .T. ) ;
#52 = EDGE_LOOP ( 'NONE', ( #224 ) ) ;
#53 = CARTESIAN_POINT ( 'NONE',  ( 25.00000000000000000, 0.000000000000000000, 0.000000000000000000 ) ) ;
#54 = EDGE_CURVE ( 'NONE', #89, #89, #97, .T. ) ;
#55 = DIRECTION ( 'NONE',  ( 0.000000000000000000, 0.000000000000000000, 1.000000000000000000 ) ) ;
#56 = AXIS2_PLACEMENT_3D ( 'NONE', #72, #181, #242 ) ;
#57 = DIRECTION ( 'NONE',  ( -1.000000000000000000, -0.000000000000000000, -0.000000000000000000 ) ) ;
#58 =( NAMED_UNIT ( * ) PLANE_ANGLE_UNIT ( ) SI_UNIT ( $, .RADIAN. ) );
#59 = PRODUCT_DEFINITION_CONTEXT ( 'detailed design', #93, 'design' ) ;
#60 = ORIENTED_EDGE ( 'NONE', *, *, #2, .F. ) ;
#61 =( LENGTH_UNIT ( ) NAMED_UNIT ( * ) SI_UNIT ( .MILLI., .METRE. ) );
#62 = APPLICATION_CONTEXT ( 'automotive_design' ) ;
#63 =( NAMED_UNIT ( * ) SI_UNIT ( $, .STERADIAN. ) SOLID_ANGLE_UNIT ( ) );
#64 = AXIS2_PLACEMENT_3D ( 'NONE', #174, #131, #32 ) ;
#65 = ORIENTED_EDGE ( 'NONE', *, *, #12, .F. ) ;
#66 = CYLINDRICAL_SURFACE ( 'NONE', #29, 4.000000000000000000 ) ;
#67 = AXIS2_PLACEMENT_3D ( 'NONE', #213, #175, #69 ) ;
#68 = CARTESIAN_POINT ( 'NONE',  ( 26.00000000000000355, 0.000000000000000000, 0.000000000000000000 ) ) ;
#69 = DIRECTION ( 'NONE',  ( 0.000000000000000000, 0.000000000000000000, 1.000000000000000000 ) ) ;
#70 = DIRECTION ( 'NONE',  ( -1.000000000000000000, -0.000000000000000000, -0.000000000000000000 ) ) ;
#71 = DIRECTION ( 'NONE',  ( -1.000000000000000000, -0.000000000000000000, -0.000000000000000000 ) ) ;
#72 = CARTESIAN_POINT ( 'NONE',  ( 4.500000000000000888, 0.000000000000000000, 0.000000000000000000 ) ) ;
#73 = FACE_OUTER_BOUND ( 'NONE', #127, .T. ) ;
#74 = CONICAL_SURFACE ( 'NONE', #240, 4.999999999999999112, 0.5235987755983005920 ) ;
#75 = EDGE_CURVE ( 'NONE', #162, #162, #40, .T. ) ;
#76 = DIRECTION ( 'NONE',  ( 1.000000000000000000, 0.000000000000000000, 0.000000000000000000 ) ) ;
#77 = ORIENTED_EDGE ( 'NONE', *, *, #2, .T. ) ;
#78 = CARTESIAN_POINT ( 'NONE',  ( 25.00000000000000000, 0.000000000000000000, 7.000000000000000888 ) ) ;
#79 = ORIENTED_EDGE ( 'NONE', *, *, #130, .F. ) ;
#80 = CIRCLE ( 'NONE', #177, 7.000000000000000888 ) ;
#81 = DIRECTION ( 'NONE',  ( 0.000000000000000000, 0.000000000000000000, 1.000000000000000000 ) ) ;
#82 = FACE_OUTER_BOUND ( 'NONE', #206, .T. ) ;
#83 = COLOUR_RGB ( '',0.8274509803921568096, 0.8392156862745098200, 0.8274509803921568096 ) ;
#84 = EDGE_LOOP ( 'NONE', ( #147 ) ) ;
#85 = DIRECTION ( 'NONE',  ( 0.000000000000000000, 0.000000000000000000, 1.000000000000000000 ) ) ;
#86 = ORIENTED_EDGE ( 'NONE', *, *, #54, .T. ) ;
#87 = ADVANCED_FACE ( 'NONE', ( #151, #171 ), #66, .T. ) ;
#88 = AXIS2_PLACEMENT_3D ( 'NONE', #53, #20, #182 ) ;
#89 = VERTEX_POINT ( 'NONE', #146 ) ;
#90 = DIRECTION ( 'NONE',  ( 1.000000000000000000, 0.000000000000000000, 0.000000000000000000 ) ) ;
#91 = SURFACE_STYLE_FILL_AREA ( #1 ) ;
#92 = AXIS2_PLACEMENT_3D ( 'NONE', #254, #70, #112 ) ;
#93 = APPLICATION_CONTEXT ( 'automotive_design' ) ;
#94 = CARTESIAN_POINT ( 'NONE',  ( 4.500000000000000888, 0.000000000000000000, 4.000000000000000000 ) ) ;
#95 =( NAMED_UNIT ( * ) SI_UNIT ( $, .STERADIAN. ) SOLID_ANGLE_UNIT ( ) );
#96 = EDGE_LOOP ( 'NONE', ( #247 ) ) ;
#97 = CIRCLE ( 'NONE', #67, 4.422649730810371160 ) ;
#98 = VERTEX_POINT ( 'NONE', #103 ) ;
#99 = EDGE_LOOP ( 'NONE', ( #143 ) ) ;
#100 = FILL_AREA_STYLE_COLOUR ( '', #83 ) ;
#101 = EDGE_LOOP ( 'NONE', ( #163 ) ) ;
#102 = ADVANCED_FACE ( 'NONE', ( #192, #111 ), #233, .T. ) ;
#103 = CARTESIAN_POINT ( 'NONE',  ( 3.450000000000000178, 0.000000000000000000, 4.000000000000000000 ) ) ;
#104 = CLOSED_SHELL ( 'NONE', ( #123, #22, #102, #170, #8, #251, #87, #46, #230, #198, #152 ) ) ;
#105 = AXIS2_PLACEMENT_3D ( 'NONE', #140, #118, #158 ) ;
#106 = EDGE_LOOP ( 'NONE', ( #121 ) ) ;
#107 = DIRECTION ( 'NONE',  ( 0.000000000000000000, 0.000000000000000000, 1.000000000000000000 ) ) ;
#108 = FACE_OUTER_BOUND ( 'NONE', #101, .T. ) ;
#109 = CIRCLE ( 'NONE', #64, 4.999999999999999112 ) ;
#110 =( GEOMETRIC_REPRESENTATION_CONTEXT ( 3 ) GLOBAL_UNCERTAINTY_ASSIGNED_CONTEXT ( ( #14 ) ) GLOBAL_UNIT_ASSIGNED_CONTEXT ( ( #61, #205, #95 ) ) REPRESENTATION_CONTEXT ( 'NONE', 'WORKASPACE' ) );
#111 = FACE_OUTER_BOUND ( 'NONE', #106, .T. ) ;
#112 = DIRECTION ( 'NONE',  ( 0.000000000000000000, 0.000000000000000000, 1.000000000000000000 ) ) ;
#113 = EDGE_CURVE ( 'NONE', #204, #204, #249, .T. ) ;
#114 = DIRECTION ( 'NONE',  ( 1.000000000000000000, 0.000000000000000000, 0.000000000000000000 ) ) ;
#115 = DIRECTION ( 'NONE',  ( 0.000000000000000000, 0.000000000000000000, -1.000000000000000000 ) ) ;
#116 = CARTESIAN_POINT ( 'NONE',  ( 3.450000000000000178, 0.000000000000000000, 0.000000000000000000 ) ) ;
#117 = ADVANCED_BREP_SHAPE_REPRESENTATION ( '76.04.04.0005', ( #227, #173 ), #110 ) ;
#118 = DIRECTION ( 'NONE',  ( 1.000000000000000000, 0.000000000000000000, 0.000000000000000000 ) ) ;
#119 = CARTESIAN_POINT ( 'NONE',  ( 0.9999999999999995559, 0.000000000000000000, 4.999999999999999112 ) ) ;
#120 =( NAMED_UNIT ( * ) PLANE_ANGLE_UNIT ( ) SI_UNIT ( $, .RADIAN. ) );
#121 = ORIENTED_EDGE ( 'NONE', *, *, #18, .T. ) ;
#122 = CARTESIAN_POINT ( 'NONE',  ( 3.449999999999999734, 0.000000000000000000, 4.999999999999999112 ) ) ;
#123 = ADVANCED_FACE ( 'NONE', ( #108 ), #193, .F. ) ;
#124 = APPLICATION_PROTOCOL_DEFINITION ( 'draft international standard', 'automotive_design', 1998, #93 ) ;
#125 = ORIENTED_EDGE ( 'NONE', *, *, #225, .T. ) ;
#126 = EDGE_LOOP ( 'NONE', ( #79 ) ) ;
#127 = EDGE_LOOP ( 'NONE', ( #60 ) ) ;
#128 = AXIS2_PLACEMENT_3D ( 'NONE', #116, #57, #55 ) ;
#129 = DIRECTION ( 'NONE',  ( -1.000000000000000000, -0.000000000000000000, -0.000000000000000000 ) ) ;
#130 = EDGE_CURVE ( 'NONE', #42, #42, #167, .T. ) ;
#131 = DIRECTION ( 'NONE',  ( -1.000000000000000000, -0.000000000000000000, -0.000000000000000000 ) ) ;
#132 = DIRECTION ( 'NONE',  ( -1.000000000000000000, 0.000000000000000000, -0.000000000000000000 ) ) ;
#133 = DIRECTION ( 'NONE',  ( 0.000000000000000000, 0.000000000000000000, 1.000000000000000000 ) ) ;
#134 = EDGE_LOOP ( 'NONE', ( #125 ) ) ;
#135 = PRESENTATION_STYLE_ASSIGNMENT (( #160 ) ) ;
#136 = CIRCLE ( 'NONE', #88, 7.000000000000000888 ) ;
#137 = FACE_OUTER_BOUND ( 'NONE', #211, .T. ) ;
#138 = FACE_OUTER_BOUND ( 'NONE', #3, .T. ) ;
#139 = CARTESIAN_POINT ( 'NONE',  ( -9.027997406499148350E-17, 4.422649730810371160, 0.000000000000000000 ) ) ;
#140 = CARTESIAN_POINT ( 'NONE',  ( 25.00000000000000000, 7.000000000000000888, 0.000000000000000000 ) ) ;
#141 =( LENGTH_UNIT ( ) NAMED_UNIT ( * ) SI_UNIT ( .MILLI., .METRE. ) );
#142 = PRODUCT_DEFINITION ( 'UNKNOWN', '', #25, #59 ) ;
#143 = ORIENTED_EDGE ( 'NONE', *, *, #236, .F. ) ;
#144 = AXIS2_PLACEMENT_3D ( 'NONE', #172, #71, #133 ) ;
#145 = SURFACE_STYLE_FILL_AREA ( #165 ) ;
#146 = CARTESIAN_POINT ( 'NONE',  ( -1.805599481299829670E-16, 0.000000000000000000, 4.422649730810371160 ) ) ;
#147 = ORIENTED_EDGE ( 'NONE', *, *, #12, .T. ) ;
#148 = EDGE_LOOP ( 'NONE', ( #229 ) ) ;
#149 = CIRCLE ( 'NONE', #56, 4.999999999999999112 ) ;
#150 = CARTESIAN_POINT ( 'NONE',  ( 3.449999999999999734, 4.999999999999999112, 0.000000000000000000 ) ) ;
#151 = FACE_OUTER_BOUND ( 'NONE', #99, .T. ) ;
#152 = ADVANCED_FACE ( 'NONE', ( #137 ), #257, .F. ) ;
#153 = FACE_BOUND ( 'NONE', #190, .T. ) ;
#154 = CONICAL_SURFACE ( 'NONE', #221, 6.000000000000003553, 0.7853981633974466137 ) ;
#155 = DIRECTION ( 'NONE',  ( -1.000000000000000000, 0.000000000000000000, -0.000000000000000000 ) ) ;
#156 = FACE_OUTER_BOUND ( 'NONE', #134, .T. ) ;
#157 = CARTESIAN_POINT ( 'NONE',  ( 0.000000000000000000, 0.000000000000000000, 0.000000000000000000 ) ) ;
#158 = DIRECTION ( 'NONE',  ( 0.000000000000000000, 0.000000000000000000, -1.000000000000000000 ) ) ;
#159 = FACE_OUTER_BOUND ( 'NONE', #209, .T. ) ;
#160 = SURFACE_STYLE_USAGE ( .BOTH. , #199 ) ;
#161 = UNCERTAINTY_MEASURE_WITH_UNIT (LENGTH_MEASURE( 1.000000000000000082E-05 ), #258, 'distance_accuracy_value', 'NONE');
#162 = VERTEX_POINT ( 'NONE', #26 ) ;
#163 = ORIENTED_EDGE ( 'NONE', *, *, #75, .F. ) ;
#164 = EDGE_CURVE ( 'NONE', #244, #244, #149, .T. ) ;
#165 = FILL_AREA_STYLE ('',( #100 ) ) ;
#166 = EDGE_LOOP ( 'NONE', ( #65 ) ) ;
#167 = CIRCLE ( 'NONE', #30, 4.999999999999999112 ) ;
#168 = DIRECTION ( 'NONE',  ( 1.000000000000000000, 0.000000000000000000, 0.000000000000000000 ) ) ;
#169 = EDGE_LOOP ( 'NONE', ( #44 ) ) ;
#170 = ADVANCED_FACE ( 'NONE', ( #17, #156 ), #260, .F. ) ;
#171 = FACE_OUTER_BOUND ( 'NONE', #84, .T. ) ;
#172 = CARTESIAN_POINT ( 'NONE',  ( 4.500000000000000888, 0.000000000000000000, 0.000000000000000000 ) ) ;
#173 = AXIS2_PLACEMENT_3D ( 'NONE', #210, #189, #168 ) ;
#174 = CARTESIAN_POINT ( 'NONE',  ( 0.9999999999999995559, 0.000000000000000000, 0.000000000000000000 ) ) ;
#175 = DIRECTION ( 'NONE',  ( -1.000000000000000000, -0.000000000000000000, -0.000000000000000000 ) ) ;
#176 = FACE_OUTER_BOUND ( 'NONE', #148, .T. ) ;
#177 = AXIS2_PLACEMENT_3D ( 'NONE', #68, #129, #85 ) ;
#178 = COLOUR_RGB ( '',0.8274509803921568096, 0.8392156862745098200, 0.8274509803921568096 ) ;
#179 = DIRECTION ( 'NONE',  ( -1.000000000000000000, -0.000000000000000000, -0.000000000000000000 ) ) ;
#180 = PRODUCT_RELATED_PRODUCT_CATEGORY ( 'part', '', ( #220 ) ) ;
#181 = DIRECTION ( 'NONE',  ( -1.000000000000000000, -0.000000000000000000, -0.000000000000000000 ) ) ;
#182 = DIRECTION ( 'NONE',  ( 0.000000000000000000, 0.000000000000000000, 1.000000000000000000 ) ) ;
#183 = VERTEX_POINT ( 'NONE', #119 ) ;
#184 = CARTESIAN_POINT ( 'NONE',  ( 0.9999999999999995559, 0.000000000000000000, 0.000000000000000000 ) ) ;
#185 = APPLICATION_PROTOCOL_DEFINITION ( 'draft international standard', 'automotive_design', 1998, #62 ) ;
#186 = CIRCLE ( 'NONE', #144, 4.000000000000000000 ) ;
#187 = SURFACE_STYLE_USAGE ( .BOTH. , #223 ) ;
#188 = ORIENTED_EDGE ( 'NONE', *, *, #236, .T. ) ;
#189 = DIRECTION ( 'NONE',  ( 0.000000000000000000, 0.000000000000000000, 1.000000000000000000 ) ) ;
#190 = EDGE_LOOP ( 'NONE', ( #188 ) ) ;
#191 = PLANE ( 'NONE',  #202 ) ;
#192 = FACE_OUTER_BOUND ( 'NONE', #96, .T. ) ;
#193 = PLANE ( 'NONE',  #45 ) ;
#194 = AXIS2_PLACEMENT_3D ( 'NONE', #157, #179, #200 ) ;
#195 = DIRECTION ( 'NONE',  ( -1.000000000000000000, -0.000000000000000000, -0.000000000000000000 ) ) ;
#196 = EDGE_LOOP ( 'NONE', ( #231 ) ) ;
#197 = VERTEX_POINT ( 'NONE', #15 ) ;
#198 = ADVANCED_FACE ( 'NONE', ( #37, #19 ), #74, .T. ) ;
#199 = SURFACE_SIDE_STYLE ('',( #91 ) ) ;
#200 = DIRECTION ( 'NONE',  ( 0.000000000000000000, 0.000000000000000000, 1.000000000000000000 ) ) ;
#201 = DIRECTION ( 'NONE',  ( 0.000000000000000000, 0.000000000000000000, -1.000000000000000000 ) ) ;
#202 = AXIS2_PLACEMENT_3D ( 'NONE', #150, #155, #35 ) ;
#203 = VERTEX_POINT ( 'NONE', #94 ) ;
#204 = VERTEX_POINT ( 'NONE', #226 ) ;
#205 =( NAMED_UNIT ( * ) PLANE_ANGLE_UNIT ( ) SI_UNIT ( $, .RADIAN. ) );
#206 = EDGE_LOOP ( 'NONE', ( #13 ) ) ;
#207 = MECHANICAL_DESIGN_GEOMETRIC_PRESENTATION_REPRESENTATION (  '', ( #228 ), #38 ) ;
#208 = SHAPE_DEFINITION_REPRESENTATION ( #218, #117 ) ;
#209 = EDGE_LOOP ( 'NONE', ( #43 ) ) ;
#210 = CARTESIAN_POINT ( 'NONE',  ( 0.000000000000000000, 0.000000000000000000, 0.000000000000000000 ) ) ;
#211 = EDGE_LOOP ( 'NONE', ( #86 ) ) ;
#212 = MECHANICAL_DESIGN_GEOMETRIC_PRESENTATION_REPRESENTATION (  '', ( #243 ), #41 ) ;
#213 = CARTESIAN_POINT ( 'NONE',  ( -1.805599481299829670E-16, 0.000000000000000000, 0.000000000000000000 ) ) ;
#214 = DIRECTION ( 'NONE',  ( 0.000000000000000000, 0.000000000000000000, 1.000000000000000000 ) ) ;
#215 = DIRECTION ( 'NONE',  ( -0.000000000000000000, 0.000000000000000000, 1.000000000000000000 ) ) ;
#216 = AXIS2_PLACEMENT_3D ( 'NONE', #139, #76, #115 ) ;
#217 = CARTESIAN_POINT ( 'NONE',  ( 27.00000000000000355, 0.000000000000000000, 0.000000000000000000 ) ) ;
#218 = PRODUCT_DEFINITION_SHAPE ( 'NONE', 'NONE',  #142 ) ;
#219 = PLANE ( 'NONE',  #256 ) ;
#220 = PRODUCT ( '76.04.04.0005', '76.04.04.0005', '', ( #5 ) ) ;
#221 = AXIS2_PLACEMENT_3D ( 'NONE', #217, #48, #36 ) ;
#222 = CARTESIAN_POINT ( 'NONE',  ( 4.500000000000000888, 4.000000000000000000, 0.000000000000000000 ) ) ;
#223 = SURFACE_SIDE_STYLE ('',( #145 ) ) ;
#224 = ORIENTED_EDGE ( 'NONE', *, *, #18, .F. ) ;
#225 = EDGE_CURVE ( 'NONE', #245, #245, #136, .T. ) ;
#226 = CARTESIAN_POINT ( 'NONE',  ( 25.00000000000000000, 0.000000000000000000, 5.000000000000001776 ) ) ;
#227 = MANIFOLD_SOLID_BREP ( 'Revolve2', #104 ) ;
#228 = STYLED_ITEM ( 'NONE', ( #135 ), #227 ) ;
#229 = ORIENTED_EDGE ( 'NONE', *, *, #164, .F. ) ;
#230 = ADVANCED_FACE ( 'NONE', ( #73, #159 ), #39, .T. ) ;
#231 = ORIENTED_EDGE ( 'NONE', *, *, #113, .F. ) ;
#232 = CARTESIAN_POINT ( 'NONE',  ( 0.000000000000000000, 0.000000000000000000, 0.000000000000000000 ) ) ;
#233 = CYLINDRICAL_SURFACE ( 'NONE', #24, 7.000000000000000888 ) ;
#234 = DIRECTION ( 'NONE',  ( -1.000000000000000000, -0.000000000000000000, -0.000000000000000000 ) ) ;
#235 = DIRECTION ( 'NONE',  ( -1.000000000000000000, -0.000000000000000000, -0.000000000000000000 ) ) ;
#236 = EDGE_CURVE ( 'NONE', #98, #98, #259, .T. ) ;
#237 = UNCERTAINTY_MEASURE_WITH_UNIT (LENGTH_MEASURE( 1.000000000000000082E-05 ), #141, 'distance_accuracy_value', 'NONE');
#238 = DIRECTION ( 'NONE',  ( 0.000000000000000000, 0.000000000000000000, -1.000000000000000000 ) ) ;
#239 =( NAMED_UNIT ( * ) SI_UNIT ( $, .STERADIAN. ) SOLID_ANGLE_UNIT ( ) );
#240 = AXIS2_PLACEMENT_3D ( 'NONE', #184, #90, #238 ) ;
#241 = FILL_AREA_STYLE_COLOUR ( '', #178 ) ;
#242 = DIRECTION ( 'NONE',  ( 0.000000000000000000, 0.000000000000000000, 1.000000000000000000 ) ) ;
#243 = STYLED_ITEM ( 'NONE', ( #27 ), #117 ) ;
#244 = VERTEX_POINT ( 'NONE', #23 ) ;
#245 = VERTEX_POINT ( 'NONE', #78 ) ;
#246 = ORIENTED_EDGE ( 'NONE', *, *, #54, .F. ) ;
#247 = ORIENTED_EDGE ( 'NONE', *, *, #225, .F. ) ;
#248 = CYLINDRICAL_SURFACE ( 'NONE', #92, 5.000000000000000888 ) ;
#249 = CIRCLE ( 'NONE', #4, 5.000000000000001776 ) ;
#250 = FACE_OUTER_BOUND ( 'NONE', #52, .T. ) ;
#251 = ADVANCED_FACE ( 'NONE', ( #21, #138 ), #219, .F. ) ;
#252 = FACE_OUTER_BOUND ( 'NONE', #126, .T. ) ;
#253 = CARTESIAN_POINT ( 'NONE',  ( 25.00000000000000000, 0.000000000000000000, 0.000000000000000000 ) ) ;
#254 = CARTESIAN_POINT ( 'NONE',  ( 0.000000000000000000, 0.000000000000000000, 0.000000000000000000 ) ) ;
#255 = AXIS2_PLACEMENT_3D ( 'NONE', #7, #235, #81 ) ;
#256 = AXIS2_PLACEMENT_3D ( 'NONE', #222, #114, #201 ) ;
#257 = PLANE ( 'NONE',  #216 ) ;
#258 =( LENGTH_UNIT ( ) NAMED_UNIT ( * ) SI_UNIT ( .MILLI., .METRE. ) );
#259 = CIRCLE ( 'NONE', #128, 4.000000000000000000 ) ;
#260 = PLANE ( 'NONE',  #105 ) ;
ENDSEC;
END-ISO-10303-21;
