ISO-10303-21;
HEADER;
FILE_DESCRIPTION (( 'STEP AP214' ),
    '1' );
FILE_NAME ('76.04.04.0002.step',
    '2021-04-02T18:04:24',
    ( '' ),
    ( '' ),
    'SwSTEP 2.0',
    'SolidWorks 2021',
    '' );
FILE_SCHEMA (( 'AUTOMOTIVE_DESIGN' ));
ENDSEC;

DATA;
#1 = DIRECTION ( 'NONE',  ( 0.000000000000000000, 0.000000000000000000, 1.000000000000000000 ) ) ;
#2 = ADVANCED_FACE ( 'NONE', ( #3, #79 ), #172, .F. ) ;
#3 = FACE_BOUND ( 'NONE', #4, .T. ) ;
#4 = EDGE_LOOP ( 'NONE', ( #193 ) ) ;
#5 = ORIENTED_EDGE ( 'NONE', *, *, #77, .T. ) ;
#6 =( NAMED_UNIT ( * ) SI_UNIT ( $, .STERADIAN. ) SOLID_ANGLE_UNIT ( ) );
#7 = PRODUCT_DEFINITION_FORMATION_WITH_SPECIFIED_SOURCE ( 'ANY', '', #105, .NOT_KNOWN. ) ;
#8 = EDGE_LOOP ( 'NONE', ( #148 ) ) ;
#9 = CARTESIAN_POINT ( 'NONE',  ( 14.49999999999999822, 0.000000000000000000, 0.000000000000000000 ) ) ;
#10 = EDGE_CURVE ( 'NONE', #135, #135, #154, .T. ) ;
#11 = CARTESIAN_POINT ( 'NONE',  ( 0.000000000000000000, 2.211324865405184692, 0.000000000000000000 ) ) ;
#12 = FACE_OUTER_BOUND ( 'NONE', #104, .T. ) ;
#13 = DIRECTION ( 'NONE',  ( 0.000000000000000000, 0.000000000000000000, 1.000000000000000000 ) ) ;
#14 = ADVANCED_FACE ( 'NONE', ( #196, #12 ), #234, .T. ) ;
#15 = DIRECTION ( 'NONE',  ( -1.000000000000000000, -0.000000000000000000, -0.000000000000000000 ) ) ;
#16 = CARTESIAN_POINT ( 'NONE',  ( 0.4999999999999998890, 0.000000000000000000, 2.499999999999998668 ) ) ;
#17 = FACE_BOUND ( 'NONE', #23, .T. ) ;
#18 = DIRECTION ( 'NONE',  ( -1.000000000000000000, 0.000000000000000000, -0.000000000000000000 ) ) ;
#19 = CYLINDRICAL_SURFACE ( 'NONE', #219, 2.000000000000000000 ) ;
#20 = CIRCLE ( 'NONE', #228, 4.000000000000000000 ) ;
#21 = CARTESIAN_POINT ( 'NONE',  ( 13.99999999999999822, 0.000000000000000000, 0.000000000000000000 ) ) ;
#22 = FILL_AREA_STYLE_COLOUR ( '', #66 ) ;
#23 = EDGE_LOOP ( 'NONE', ( #100 ) ) ;
#24 = CONICAL_SURFACE ( 'NONE', #198, 3.500000000000001332, 0.7853981633974466137 ) ;
#25 = SHAPE_DEFINITION_REPRESENTATION ( #156, #42 ) ;
#26 = ADVANCED_FACE ( 'NONE', ( #90, #129 ), #194, .T. ) ;
#27 = CIRCLE ( 'NONE', #33, 4.000000000000000000 ) ;
#28 = ORIENTED_EDGE ( 'NONE', *, *, #77, .F. ) ;
#29 = CARTESIAN_POINT ( 'NONE',  ( 0.000000000000000000, 0.000000000000000000, 0.000000000000000000 ) ) ;
#30 = PLANE ( 'NONE',  #121 ) ;
#31 = AXIS2_PLACEMENT_3D ( 'NONE', #130, #112, #34 ) ;
#32 = PRESENTATION_STYLE_ASSIGNMENT (( #89 ) ) ;
#33 = AXIS2_PLACEMENT_3D ( 'NONE', #21, #72, #160 ) ;
#34 = DIRECTION ( 'NONE',  ( 0.000000000000000000, 0.000000000000000000, 1.000000000000000000 ) ) ;
#35 = FACE_BOUND ( 'NONE', #63, .T. ) ;
#36 = CIRCLE ( 'NONE', #114, 2.000000000000000000 ) ;
#37 = DIRECTION ( 'NONE',  ( 0.000000000000000000, 0.000000000000000000, 1.000000000000000000 ) ) ;
#38 = PLANE ( 'NONE',  #177 ) ;
#39 = PRODUCT_DEFINITION ( 'UNKNOWN', '', #7, #167 ) ;
#40 = CIRCLE ( 'NONE', #224, 2.500000000000000444 ) ;
#41 = ORIENTED_EDGE ( 'NONE', *, *, #46, .F. ) ;
#42 = ADVANCED_BREP_SHAPE_REPRESENTATION ( '76.04.04.0002', ( #138, #211 ), #187 ) ;
#43 = ORIENTED_EDGE ( 'NONE', *, *, #217, .F. ) ;
#44 = DIRECTION ( 'NONE',  ( 0.000000000000000000, 0.000000000000000000, -1.000000000000000000 ) ) ;
#45 = SURFACE_SIDE_STYLE ('',( #70 ) ) ;
#46 = EDGE_CURVE ( 'NONE', #205, #205, #20, .T. ) ;
#47 = FACE_OUTER_BOUND ( 'NONE', #245, .T. ) ;
#48 = DIRECTION ( 'NONE',  ( -0.000000000000000000, 0.000000000000000000, 1.000000000000000000 ) ) ;
#49 = DIRECTION ( 'NONE',  ( 0.000000000000000000, 0.000000000000000000, 1.000000000000000000 ) ) ;
#50 = FACE_OUTER_BOUND ( 'NONE', #231, .T. ) ;
#51 = DIRECTION ( 'NONE',  ( 0.000000000000000000, 0.000000000000000000, 1.000000000000000000 ) ) ;
#52 = FACE_OUTER_BOUND ( 'NONE', #126, .T. ) ;
#53 = CARTESIAN_POINT ( 'NONE',  ( 13.00000000000000000, 0.000000000000000000, 0.000000000000000000 ) ) ;
#54 = EDGE_CURVE ( 'NONE', #241, #241, #258, .T. ) ;
#55 = VERTEX_POINT ( 'NONE', #256 ) ;
#56 = AXIS2_PLACEMENT_3D ( 'NONE', #140, #222, #223 ) ;
#57 =( GEOMETRIC_REPRESENTATION_CONTEXT ( 3 ) GLOBAL_UNCERTAINTY_ASSIGNED_CONTEXT ( ( #116 ) ) GLOBAL_UNIT_ASSIGNED_CONTEXT ( ( #253, #176, #200 ) ) REPRESENTATION_CONTEXT ( 'NONE', 'WORKASPACE' ) );
#58 = CARTESIAN_POINT ( 'NONE',  ( 0.000000000000000000, 0.000000000000000000, 0.000000000000000000 ) ) ;
#59 = ORIENTED_EDGE ( 'NONE', *, *, #139, .F. ) ;
#60 = EDGE_LOOP ( 'NONE', ( #82 ) ) ;
#61 = EDGE_LOOP ( 'NONE', ( #28 ) ) ;
#62 = PRODUCT_RELATED_PRODUCT_CATEGORY ( 'part', '', ( #105 ) ) ;
#63 = EDGE_LOOP ( 'NONE', ( #127 ) ) ;
#64 = DIRECTION ( 'NONE',  ( 0.000000000000000000, 0.000000000000000000, 1.000000000000000000 ) ) ;
#65 = AXIS2_PLACEMENT_3D ( 'NONE', #86, #119, #97 ) ;
#66 = COLOUR_RGB ( '',0.8274509803921568096, 0.8392156862745098200, 0.8274509803921568096 ) ;
#67 = CARTESIAN_POINT ( 'NONE',  ( 0.000000000000000000, 0.000000000000000000, 0.000000000000000000 ) ) ;
#68 = CARTESIAN_POINT ( 'NONE',  ( 0.000000000000000000, 0.000000000000000000, 0.000000000000000000 ) ) ;
#69 = DIRECTION ( 'NONE',  ( 0.000000000000000000, 0.000000000000000000, 1.000000000000000000 ) ) ;
#70 = SURFACE_STYLE_FILL_AREA ( #233 ) ;
#71 = AXIS2_PLACEMENT_3D ( 'NONE', #204, #117, #221 ) ;
#72 = DIRECTION ( 'NONE',  ( -1.000000000000000000, -0.000000000000000000, -0.000000000000000000 ) ) ;
#73 = ADVANCED_FACE ( 'NONE', ( #216, #153 ), #85, .T. ) ;
#74 = CARTESIAN_POINT ( 'NONE',  ( 2.499999999999998668, 0.000000000000000000, 2.499999999999999112 ) ) ;
#75 = UNCERTAINTY_MEASURE_WITH_UNIT (LENGTH_MEASURE( 1.000000000000000082E-05 ), #185, 'distance_accuracy_value', 'NONE');
#76 = CARTESIAN_POINT ( 'NONE',  ( 1.759999999999998677, 0.000000000000000000, 2.499999999999998668 ) ) ;
#77 = EDGE_CURVE ( 'NONE', #178, #178, #254, .T. ) ;
#78 = CARTESIAN_POINT ( 'NONE',  ( 13.00000000000000000, 0.000000000000000000, 2.500000000000000444 ) ) ;
#79 = FACE_OUTER_BOUND ( 'NONE', #81, .T. ) ;
#80 = VERTEX_POINT ( 'NONE', #151 ) ;
#81 = EDGE_LOOP ( 'NONE', ( #248 ) ) ;
#82 = ORIENTED_EDGE ( 'NONE', *, *, #10, .F. ) ;
#83 =( NAMED_UNIT ( * ) SI_UNIT ( $, .STERADIAN. ) SOLID_ANGLE_UNIT ( ) );
#84 = EDGE_LOOP ( 'NONE', ( #168 ) ) ;
#85 = CYLINDRICAL_SURFACE ( 'NONE', #136, 2.499999999999998668 ) ;
#86 = CARTESIAN_POINT ( 'NONE',  ( 1.759999999999998677, 0.000000000000000000, 0.000000000000000000 ) ) ;
#87 = CARTESIAN_POINT ( 'NONE',  ( 0.000000000000000000, 0.000000000000000000, 0.000000000000000000 ) ) ;
#88 = APPLICATION_CONTEXT ( 'automotive_design' ) ;
#89 = SURFACE_STYLE_USAGE ( .BOTH. , #45 ) ;
#90 = FACE_OUTER_BOUND ( 'NONE', #109, .T. ) ;
#91 = AXIS2_PLACEMENT_3D ( 'NONE', #152, #251, #44 ) ;
#92 = CIRCLE ( 'NONE', #182, 2.499999999999999112 ) ;
#93 = CARTESIAN_POINT ( 'NONE',  ( 14.49999999999999822, 0.000000000000000000, 3.500000000000001332 ) ) ;
#94 = MECHANICAL_DESIGN_GEOMETRIC_PRESENTATION_REPRESENTATION (  '', ( #122 ), #101 ) ;
#95 = FACE_OUTER_BOUND ( 'NONE', #150, .T. ) ;
#96 = DIRECTION ( 'NONE',  ( 0.000000000000000000, 0.000000000000000000, 1.000000000000000000 ) ) ;
#97 = DIRECTION ( 'NONE',  ( 0.000000000000000000, 0.000000000000000000, 1.000000000000000000 ) ) ;
#98 = VERTEX_POINT ( 'NONE', #76 ) ;
#99 = PRESENTATION_STYLE_ASSIGNMENT (( #247 ) ) ;
#100 = ORIENTED_EDGE ( 'NONE', *, *, #54, .T. ) ;
#101 =( GEOMETRIC_REPRESENTATION_CONTEXT ( 3 ) GLOBAL_UNCERTAINTY_ASSIGNED_CONTEXT ( ( #75 ) ) GLOBAL_UNIT_ASSIGNED_CONTEXT ( ( #185, #145, #83 ) ) REPRESENTATION_CONTEXT ( 'NONE', 'WORKASPACE' ) );
#102 = ORIENTED_EDGE ( 'NONE', *, *, #115, .T. ) ;
#103 =( LENGTH_UNIT ( ) NAMED_UNIT ( * ) SI_UNIT ( .MILLI., .METRE. ) );
#104 = EDGE_LOOP ( 'NONE', ( #230 ) ) ;
#105 = PRODUCT ( '76.04.04.0002', '76.04.04.0002', '', ( #207 ) ) ;
#106 = ORIENTED_EDGE ( 'NONE', *, *, #54, .F. ) ;
#107 = AXIS2_PLACEMENT_3D ( 'NONE', #29, #175, #213 ) ;
#108 = APPLICATION_CONTEXT ( 'automotive_design' ) ;
#109 = EDGE_LOOP ( 'NONE', ( #41 ) ) ;
#110 = DIRECTION ( 'NONE',  ( -1.000000000000000000, -0.000000000000000000, -0.000000000000000000 ) ) ;
#111 = ADVANCED_FACE ( 'NONE', ( #232 ), #30, .F. ) ;
#112 = DIRECTION ( 'NONE',  ( -1.000000000000000000, -0.000000000000000000, -0.000000000000000000 ) ) ;
#113 = CIRCLE ( 'NONE', #246, 2.499999999999998668 ) ;
#114 = AXIS2_PLACEMENT_3D ( 'NONE', #202, #225, #141 ) ;
#115 = EDGE_CURVE ( 'NONE', #98, #98, #113, .T. ) ;
#116 = UNCERTAINTY_MEASURE_WITH_UNIT (LENGTH_MEASURE( 1.000000000000000082E-05 ), #253, 'distance_accuracy_value', 'NONE');
#117 = DIRECTION ( 'NONE',  ( 1.000000000000000000, 0.000000000000000000, 0.000000000000000000 ) ) ;
#118 = FACE_OUTER_BOUND ( 'NONE', #170, .T. ) ;
#119 = DIRECTION ( 'NONE',  ( -1.000000000000000000, -0.000000000000000000, -0.000000000000000000 ) ) ;
#120 = CARTESIAN_POINT ( 'NONE',  ( 1.759999999999998677, 2.499999999999998668, 0.000000000000000000 ) ) ;
#121 = AXIS2_PLACEMENT_3D ( 'NONE', #157, #250, #48 ) ;
#122 = STYLED_ITEM ( 'NONE', ( #99 ), #42 ) ;
#123 = APPLICATION_PROTOCOL_DEFINITION ( 'draft international standard', 'automotive_design', 1998, #88 ) ;
#124 = DIRECTION ( 'NONE',  ( 0.000000000000000000, 0.000000000000000000, 1.000000000000000000 ) ) ;
#125 = PRESENTATION_LAYER_ASSIGNMENT (  '', '', ( #171 ) ) ;
#126 = EDGE_LOOP ( 'NONE', ( #209 ) ) ;
#127 = ORIENTED_EDGE ( 'NONE', *, *, #197, .F. ) ;
#128 = AXIS2_PLACEMENT_3D ( 'NONE', #11, #215, #155 ) ;
#129 = FACE_OUTER_BOUND ( 'NONE', #188, .T. ) ;
#130 = CARTESIAN_POINT ( 'NONE',  ( 0.4999999999999998890, 0.000000000000000000, 0.000000000000000000 ) ) ;
#131 = PLANE ( 'NONE',  #128 ) ;
#132 = UNCERTAINTY_MEASURE_WITH_UNIT (LENGTH_MEASURE( 1.000000000000000082E-05 ), #103, 'distance_accuracy_value', 'NONE');
#133 = ADVANCED_FACE ( 'NONE', ( #47 ), #131, .F. ) ;
#134 = DIRECTION ( 'NONE',  ( -1.000000000000000000, -0.000000000000000000, -0.000000000000000000 ) ) ;
#135 = VERTEX_POINT ( 'NONE', #16 ) ;
#136 = AXIS2_PLACEMENT_3D ( 'NONE', #68, #195, #173 ) ;
#137 = DIRECTION ( 'NONE',  ( -1.000000000000000000, -0.000000000000000000, -0.000000000000000000 ) ) ;
#138 = MANIFOLD_SOLID_BREP ( 'Revolve2', #162 ) ;
#139 = EDGE_CURVE ( 'NONE', #240, #240, #143, .T. ) ;
#140 = CARTESIAN_POINT ( 'NONE',  ( 13.00000000000000000, 4.000000000000000000, 0.000000000000000000 ) ) ;
#141 = DIRECTION ( 'NONE',  ( 0.000000000000000000, 0.000000000000000000, 1.000000000000000000 ) ) ;
#142 = PLANE ( 'NONE',  #56 ) ;
#143 = CIRCLE ( 'NONE', #65, 2.000000000000000000 ) ;
#144 = EDGE_LOOP ( 'NONE', ( #208 ) ) ;
#145 =( NAMED_UNIT ( * ) PLANE_ANGLE_UNIT ( ) SI_UNIT ( $, .RADIAN. ) );
#146 = ORIENTED_EDGE ( 'NONE', *, *, #214, .T. ) ;
#147 = APPLICATION_PROTOCOL_DEFINITION ( 'draft international standard', 'automotive_design', 1998, #108 ) ;
#148 = ORIENTED_EDGE ( 'NONE', *, *, #139, .T. ) ;
#149 = AXIS2_PLACEMENT_3D ( 'NONE', #9, #15, #49 ) ;
#150 = EDGE_LOOP ( 'NONE', ( #189 ) ) ;
#151 = CARTESIAN_POINT ( 'NONE',  ( 2.499999999999998668, 0.000000000000000000, 2.000000000000000000 ) ) ;
#152 = CARTESIAN_POINT ( 'NONE',  ( 2.499999999999998668, 2.000000000000000000, 0.000000000000000000 ) ) ;
#153 = FACE_OUTER_BOUND ( 'NONE', #227, .T. ) ;
#154 = CIRCLE ( 'NONE', #31, 2.499999999999998668 ) ;
#155 = DIRECTION ( 'NONE',  ( 0.000000000000000000, 0.000000000000000000, -1.000000000000000000 ) ) ;
#156 = PRODUCT_DEFINITION_SHAPE ( 'NONE', 'NONE',  #39 ) ;
#157 = CARTESIAN_POINT ( 'NONE',  ( 14.49999999999999822, 0.000000000000000000, 0.000000000000000000 ) ) ;
#158 = CONICAL_SURFACE ( 'NONE', #71, 2.499999999999998668, 0.5235987755983005920 ) ;
#159 = CARTESIAN_POINT ( 'NONE',  ( 13.00000000000000000, 0.000000000000000000, 0.000000000000000000 ) ) ;
#160 = DIRECTION ( 'NONE',  ( 0.000000000000000000, 0.000000000000000000, 1.000000000000000000 ) ) ;
#161 = FACE_OUTER_BOUND ( 'NONE', #84, .T. ) ;
#162 = CLOSED_SHELL ( 'NONE', ( #111, #180, #26, #190, #14, #2, #166, #259, #73, #239, #133 ) ) ;
#163 = DIRECTION ( 'NONE',  ( -1.000000000000000000, -0.000000000000000000, -0.000000000000000000 ) ) ;
#164 = FACE_OUTER_BOUND ( 'NONE', #144, .T. ) ;
#165 = VERTEX_POINT ( 'NONE', #78 ) ;
#166 = ADVANCED_FACE ( 'NONE', ( #118, #95 ), #19, .T. ) ;
#167 = PRODUCT_DEFINITION_CONTEXT ( 'detailed design', #88, 'design' ) ;
#168 = ORIENTED_EDGE ( 'NONE', *, *, #10, .T. ) ;
#169 = SURFACE_SIDE_STYLE ('',( #249 ) ) ;
#170 = EDGE_LOOP ( 'NONE', ( #59 ) ) ;
#171 = STYLED_ITEM ( 'NONE', ( #32 ), #138 ) ;
#172 = PLANE ( 'NONE',  #91 ) ;
#173 = DIRECTION ( 'NONE',  ( 0.000000000000000000, 0.000000000000000000, 1.000000000000000000 ) ) ;
#174 = FILL_AREA_STYLE_COLOUR ( '', #186 ) ;
#175 = DIRECTION ( 'NONE',  ( -1.000000000000000000, -0.000000000000000000, -0.000000000000000000 ) ) ;
#176 =( NAMED_UNIT ( * ) PLANE_ANGLE_UNIT ( ) SI_UNIT ( $, .RADIAN. ) );
#177 = AXIS2_PLACEMENT_3D ( 'NONE', #120, #18, #179 ) ;
#178 = VERTEX_POINT ( 'NONE', #238 ) ;
#179 = DIRECTION ( 'NONE',  ( -0.000000000000000000, 0.000000000000000000, 1.000000000000000000 ) ) ;
#180 = ADVANCED_FACE ( 'NONE', ( #52, #17 ), #24, .T. ) ;
#181 = CARTESIAN_POINT ( 'NONE',  ( 13.00000000000000000, 0.000000000000000000, 4.000000000000000000 ) ) ;
#182 = AXIS2_PLACEMENT_3D ( 'NONE', #237, #137, #37 ) ;
#183 = CARTESIAN_POINT ( 'NONE',  ( 0.000000000000000000, 0.000000000000000000, 0.000000000000000000 ) ) ;
#184 = CARTESIAN_POINT ( 'NONE',  ( 1.759999999999998677, 0.000000000000000000, 2.000000000000000000 ) ) ;
#185 =( LENGTH_UNIT ( ) NAMED_UNIT ( * ) SI_UNIT ( .MILLI., .METRE. ) );
#186 = COLOUR_RGB ( '',0.8274509803921568096, 0.8392156862745098200, 0.8274509803921568096 ) ;
#187 =( GEOMETRIC_REPRESENTATION_CONTEXT ( 3 ) GLOBAL_UNCERTAINTY_ASSIGNED_CONTEXT ( ( #132 ) ) GLOBAL_UNIT_ASSIGNED_CONTEXT ( ( #103, #192, #6 ) ) REPRESENTATION_CONTEXT ( 'NONE', 'WORKASPACE' ) );
#188 = EDGE_LOOP ( 'NONE', ( #146 ) ) ;
#189 = ORIENTED_EDGE ( 'NONE', *, *, #226, .T. ) ;
#190 = ADVANCED_FACE ( 'NONE', ( #35, #164 ), #142, .F. ) ;
#191 = ORIENTED_EDGE ( 'NONE', *, *, #115, .F. ) ;
#192 =( NAMED_UNIT ( * ) PLANE_ANGLE_UNIT ( ) SI_UNIT ( $, .RADIAN. ) );
#193 = ORIENTED_EDGE ( 'NONE', *, *, #226, .F. ) ;
#194 = CYLINDRICAL_SURFACE ( 'NONE', #107, 4.000000000000000000 ) ;
#195 = DIRECTION ( 'NONE',  ( -1.000000000000000000, -0.000000000000000000, -0.000000000000000000 ) ) ;
#196 = FACE_OUTER_BOUND ( 'NONE', #244, .T. ) ;
#197 = EDGE_CURVE ( 'NONE', #165, #165, #40, .T. ) ;
#198 = AXIS2_PLACEMENT_3D ( 'NONE', #260, #203, #1 ) ;
#199 = DIRECTION ( 'NONE',  ( 0.000000000000000000, 0.000000000000000000, 1.000000000000000000 ) ) ;
#200 =( NAMED_UNIT ( * ) SI_UNIT ( $, .STERADIAN. ) SOLID_ANGLE_UNIT ( ) );
#201 = FACE_BOUND ( 'NONE', #8, .T. ) ;
#202 = CARTESIAN_POINT ( 'NONE',  ( 2.499999999999998668, 0.000000000000000000, 0.000000000000000000 ) ) ;
#203 = DIRECTION ( 'NONE',  ( -1.000000000000000000, -0.000000000000000000, -0.000000000000000000 ) ) ;
#204 = CARTESIAN_POINT ( 'NONE',  ( 0.4999999999999998890, 0.000000000000000000, 0.000000000000000000 ) ) ;
#205 = VERTEX_POINT ( 'NONE', #181 ) ;
#206 = EDGE_LOOP ( 'NONE', ( #106 ) ) ;
#207 = PRODUCT_CONTEXT ( 'NONE', #108, 'mechanical' ) ;
#208 = ORIENTED_EDGE ( 'NONE', *, *, #46, .T. ) ;
#209 = ORIENTED_EDGE ( 'NONE', *, *, #214, .F. ) ;
#210 = MECHANICAL_DESIGN_GEOMETRIC_PRESENTATION_REPRESENTATION (  '', ( #171 ), #57 ) ;
#211 = AXIS2_PLACEMENT_3D ( 'NONE', #58, #124, #229 ) ;
#212 = CARTESIAN_POINT ( 'NONE',  ( 1.759999999999998677, 0.000000000000000000, 0.000000000000000000 ) ) ;
#213 = DIRECTION ( 'NONE',  ( 0.000000000000000000, 0.000000000000000000, 1.000000000000000000 ) ) ;
#214 = EDGE_CURVE ( 'NONE', #55, #55, #27, .T. ) ;
#215 = DIRECTION ( 'NONE',  ( 1.000000000000000000, 0.000000000000000000, 0.000000000000000000 ) ) ;
#216 = FACE_OUTER_BOUND ( 'NONE', #60, .T. ) ;
#217 = EDGE_CURVE ( 'NONE', #218, #218, #92, .T. ) ;
#218 = VERTEX_POINT ( 'NONE', #74 ) ;
#219 = AXIS2_PLACEMENT_3D ( 'NONE', #183, #163, #96 ) ;
#220 = PRESENTATION_LAYER_ASSIGNMENT (  '', '', ( #122 ) ) ;
#221 = DIRECTION ( 'NONE',  ( 0.000000000000000000, 0.000000000000000000, -1.000000000000000000 ) ) ;
#222 = DIRECTION ( 'NONE',  ( 1.000000000000000000, 0.000000000000000000, 0.000000000000000000 ) ) ;
#223 = DIRECTION ( 'NONE',  ( 0.000000000000000000, 0.000000000000000000, -1.000000000000000000 ) ) ;
#224 = AXIS2_PLACEMENT_3D ( 'NONE', #53, #255, #51 ) ;
#225 = DIRECTION ( 'NONE',  ( -1.000000000000000000, -0.000000000000000000, -0.000000000000000000 ) ) ;
#226 = EDGE_CURVE ( 'NONE', #80, #80, #36, .T. ) ;
#227 = EDGE_LOOP ( 'NONE', ( #102 ) ) ;
#228 = AXIS2_PLACEMENT_3D ( 'NONE', #159, #252, #199 ) ;
#229 = DIRECTION ( 'NONE',  ( 1.000000000000000000, 0.000000000000000000, 0.000000000000000000 ) ) ;
#230 = ORIENTED_EDGE ( 'NONE', *, *, #197, .T. ) ;
#231 = EDGE_LOOP ( 'NONE', ( #191 ) ) ;
#232 = FACE_OUTER_BOUND ( 'NONE', #206, .T. ) ;
#233 = FILL_AREA_STYLE ('',( #174 ) ) ;
#234 = CYLINDRICAL_SURFACE ( 'NONE', #242, 2.499999999999999556 ) ;
#235 = DIRECTION ( 'NONE',  ( -1.000000000000000000, -0.000000000000000000, -0.000000000000000000 ) ) ;
#236 = AXIS2_PLACEMENT_3D ( 'NONE', #67, #134, #69 ) ;
#237 = CARTESIAN_POINT ( 'NONE',  ( 2.499999999999998668, 0.000000000000000000, 0.000000000000000000 ) ) ;
#238 = CARTESIAN_POINT ( 'NONE',  ( 0.000000000000000000, 0.000000000000000000, 2.211324865405184692 ) ) ;
#239 = ADVANCED_FACE ( 'NONE', ( #257, #161 ), #158, .T. ) ;
#240 = VERTEX_POINT ( 'NONE', #184 ) ;
#241 = VERTEX_POINT ( 'NONE', #93 ) ;
#242 = AXIS2_PLACEMENT_3D ( 'NONE', #87, #235, #64 ) ;
#243 = FILL_AREA_STYLE ('',( #22 ) ) ;
#244 = EDGE_LOOP ( 'NONE', ( #43 ) ) ;
#245 = EDGE_LOOP ( 'NONE', ( #5 ) ) ;
#246 = AXIS2_PLACEMENT_3D ( 'NONE', #212, #110, #13 ) ;
#247 = SURFACE_STYLE_USAGE ( .BOTH. , #169 ) ;
#248 = ORIENTED_EDGE ( 'NONE', *, *, #217, .T. ) ;
#249 = SURFACE_STYLE_FILL_AREA ( #243 ) ;
#250 = DIRECTION ( 'NONE',  ( -1.000000000000000000, 0.000000000000000000, -0.000000000000000000 ) ) ;
#251 = DIRECTION ( 'NONE',  ( 1.000000000000000000, 0.000000000000000000, 0.000000000000000000 ) ) ;
#252 = DIRECTION ( 'NONE',  ( -1.000000000000000000, -0.000000000000000000, -0.000000000000000000 ) ) ;
#253 =( LENGTH_UNIT ( ) NAMED_UNIT ( * ) SI_UNIT ( .MILLI., .METRE. ) );
#254 = CIRCLE ( 'NONE', #236, 2.211324865405184692 ) ;
#255 = DIRECTION ( 'NONE',  ( -1.000000000000000000, -0.000000000000000000, -0.000000000000000000 ) ) ;
#256 = CARTESIAN_POINT ( 'NONE',  ( 13.99999999999999822, 0.000000000000000000, 4.000000000000000000 ) ) ;
#257 = FACE_BOUND ( 'NONE', #61, .T. ) ;
#258 = CIRCLE ( 'NONE', #149, 3.500000000000001332 ) ;
#259 = ADVANCED_FACE ( 'NONE', ( #50, #201 ), #38, .F. ) ;
#260 = CARTESIAN_POINT ( 'NONE',  ( 14.49999999999999822, 0.000000000000000000, 0.000000000000000000 ) ) ;
ENDSEC;
END-ISO-10303-21;
