ISO-10303-21;
HEADER;
FILE_DESCRIPTION (( 'STEP AP214' ),
    '1' );
FILE_NAME ('76.04.03.0007.step',
    '2021-04-02T18:00:23',
    ( '' ),
    ( '' ),
    'SwSTEP 2.0',
    'SolidWorks 2021',
    '' );
FILE_SCHEMA (( 'AUTOMOTIVE_DESIGN' ));
ENDSEC;

DATA;
#1 = CIRCLE ( 'NONE', #90, 5.500000000000005329 ) ;
#2 = CARTESIAN_POINT ( 'NONE',  ( 43.00000000000000000, 0.000000000000000000, 0.000000000000000000 ) ) ;
#3 = DIRECTION ( 'NONE',  ( -1.000000000000000000, -0.000000000000000000, -0.000000000000000000 ) ) ;
#4 = DIRECTION ( 'NONE',  ( -1.000000000000000000, 0.000000000000000000, -0.000000000000000000 ) ) ;
#5 = PRESENTATION_LAYER_ASSIGNMENT (  '', '', ( #56 ) ) ;
#6 = CARTESIAN_POINT ( 'NONE',  ( 8.146519398062180173, 1.897114250112341249, 6.738223047855723458 ) ) ;
#7 = ORIENTED_EDGE ( 'NONE', *, *, #227, .T. ) ;
#8 = EDGE_LOOP ( 'NONE', ( #302 ) ) ;
#9 = CARTESIAN_POINT ( 'NONE',  ( 7.632522109029011403, 1.999913025515744236, -6.708229863274453919 ) ) ;
#10 = CARTESIAN_POINT ( 'NONE',  ( 8.729905465984259649, 1.598313451048314349, 6.817655322462390366 ) ) ;
#11 = CARTESIAN_POINT ( 'NONE',  ( 5.564998853760701358, 0.5225777989337824225, -6.981662529645753956 ) ) ;
#12 = CARTESIAN_POINT ( 'NONE',  ( 1.499999999999999112, 0.000000000000000000, 0.000000000000000000 ) ) ;
#13 = CARTESIAN_POINT ( 'NONE',  ( 6.279191200365347392, -1.589486636880935944, -6.817555232575997159 ) ) ;
#14 = EDGE_CURVE ( 'NONE', #142, #142, #263, .T. ) ;
#15 = CARTESIAN_POINT ( 'NONE',  ( 1.499999999999999112, 0.000000000000000000, 6.999999999999999112 ) ) ;
#16 = CARTESIAN_POINT ( 'NONE',  ( 9.089011744225285128, -1.221524040899470531, -6.893473387299962063 ) ) ;
#17 = CARTESIAN_POINT ( 'NONE',  ( 6.609478292796955756, 1.795665307985615078, 6.765970348065053486 ) ) ;
#18 = FILL_AREA_STYLE ('',( #73 ) ) ;
#19 = SURFACE_STYLE_FILL_AREA ( #248 ) ;
#20 = EDGE_CURVE ( 'NONE', #70, #70, #159, .T. ) ;
#21 = CARTESIAN_POINT ( 'NONE',  ( 40.00000000000000000, 0.000000000000000000, 0.000000000000000000 ) ) ;
#22 = FILL_AREA_STYLE_COLOUR ( '', #206 ) ;
#23 = UNCERTAINTY_MEASURE_WITH_UNIT (LENGTH_MEASURE( 1.000000000000000082E-05 ), #289, 'distance_accuracy_value', 'NONE');
#24 = CIRCLE ( 'NONE', #119, 8.000000000000007105 ) ;
#25 = CARTESIAN_POINT ( 'NONE',  ( 9.500000000000001776, -1.626303258728256651E-16, 7.000000000000000000 ) ) ;
#26 = FACE_OUTER_BOUND ( 'NONE', #8, .T. ) ;
#27 = SURFACE_SIDE_STYLE ('',( #19 ) ) ;
#28 = ADVANCED_BREP_SHAPE_REPRESENTATION ( '76.04.03.0007', ( #118, #110 ), #140 ) ;
#29 = CARTESIAN_POINT ( 'NONE',  ( 8.021219012530091064, -1.935381103778393008, 6.727185445341067549 ) ) ;
#30 = FACE_BOUND ( 'NONE', #190, .T. ) ;
#31 = EDGE_CURVE ( 'NONE', #258, #258, #1, .T. ) ;
#32 = APPLICATION_CONTEXT ( 'automotive_design' ) ;
#33 = CARTESIAN_POINT ( 'NONE',  ( 5.513209139039284779, -0.2645355679088474132, 6.996193262561372528 ) ) ;
#34 = CARTESIAN_POINT ( 'NONE',  ( 5.765501804863589541, 1.004245093456140214, 6.928457968091154662 ) ) ;
#35 = CARTESIAN_POINT ( 'NONE',  ( 5.993421668581459194, 1.321852327708042063, -6.874707648399437154 ) ) ;
#36 = EDGE_LOOP ( 'NONE', ( #128 ) ) ;
#37 = ORIENTED_EDGE ( 'NONE', *, *, #250, .T. ) ;
#38 = CARTESIAN_POINT ( 'NONE',  ( 6.279191200365347392, 1.589486636880935944, 6.817555232575997159 ) ) ;
#39 = CARTESIAN_POINT ( 'NONE',  ( 5.766293639281745875, 1.005573473014547581, -6.928260705410964171 ) ) ;
#40 = CARTESIAN_POINT ( 'NONE',  ( 7.367406292895790187, 1.999951807442586604, 6.708218300742919027 ) ) ;
#41 = CARTESIAN_POINT ( 'NONE',  ( 8.508453078299064387, 1.746645116476648552, -6.779378394943107011 ) ) ;
#42 = CARTESIAN_POINT ( 'NONE',  ( -4.009977045591169573E-16, 0.000000000000000000, 5.500000000000005329 ) ) ;
#43 = DIRECTION ( 'NONE',  ( 1.000000000000000000, 0.000000000000000000, 0.000000000000000000 ) ) ;
#44 = PRODUCT_CONTEXT ( 'NONE', #32, 'mechanical' ) ;
#45 = CARTESIAN_POINT ( 'NONE',  ( 8.146519398062180173, -1.897114250112341249, -6.738223047855723458 ) ) ;
#46 = AXIS2_PLACEMENT_3D ( 'NONE', #225, #3, #185 ) ;
#47 = CARTESIAN_POINT ( 'NONE',  ( 7.234747573542422927, -1.986633563944614433, -6.712227924078428387 ) ) ;
#48 = FACE_OUTER_BOUND ( 'NONE', #60, .T. ) ;
#49 = APPLICATION_CONTEXT ( 'automotive_design' ) ;
#50 = CARTESIAN_POINT ( 'NONE',  ( 40.00000000000000000, 0.000000000000000000, 0.000000000000000000 ) ) ;
#51 = AXIS2_PLACEMENT_3D ( 'NONE', #106, #224, #98 ) ;
#52 = CARTESIAN_POINT ( 'NONE',  ( 9.486891335408076387, -0.2633913472731422289, 6.996222736472787140 ) ) ;
#53 = CARTESIAN_POINT ( 'NONE',  ( 0.000000000000000000, 0.000000000000000000, 0.000000000000000000 ) ) ;
#54 = CARTESIAN_POINT ( 'NONE',  ( 6.854710131316717359, -1.897605775779491744, 6.738087761030704392 ) ) ;
#55 = FACE_OUTER_BOUND ( 'NONE', #82, .T. ) ;
#56 = STYLED_ITEM ( 'NONE', ( #313 ), #118 ) ;
#57 = CARTESIAN_POINT ( 'NONE',  ( 5.603147246947255411, -0.6473023638615457154, 6.971062618311932191 ) ) ;
#58 = CARTESIAN_POINT ( 'NONE',  ( 6.270597139458280900, -1.599017193891166144, 6.817531761756294273 ) ) ;
#59 = EDGE_LOOP ( 'NONE', ( #134 ) ) ;
#60 = EDGE_LOOP ( 'NONE', ( #63 ) ) ;
#61 = CONICAL_SURFACE ( 'NONE', #231, 8.000000000000007105, 0.7853981633974442822 ) ;
#62 = CARTESIAN_POINT ( 'NONE',  ( 6.853337219325693397, -1.897174229582900162, -6.738211824498034019 ) ) ;
#63 = ORIENTED_EDGE ( 'NONE', *, *, #31, .T. ) ;
#64 = CARTESIAN_POINT ( 'NONE',  ( 9.005165782867898372, 1.323364765228637552, 6.874406388487427577 ) ) ;
#65 = PRODUCT_DEFINITION_SHAPE ( 'NONE', 'NONE',  #321 ) ;
#66 = CARTESIAN_POINT ( 'NONE',  ( 7.236800597737057750, 1.986934086600108174, -6.712138871111824834 ) ) ;
#67 = CARTESIAN_POINT ( 'NONE',  ( 6.494841309208952751, 1.733925575223948634, 6.782258415721988953 ) ) ;
#68 = EDGE_LOOP ( 'NONE', ( #306 ) ) ;
#69 =( GEOMETRIC_REPRESENTATION_CONTEXT ( 3 ) GLOBAL_UNCERTAINTY_ASSIGNED_CONTEXT ( ( #99 ) ) GLOBAL_UNIT_ASSIGNED_CONTEXT ( ( #178, #270, #150 ) ) REPRESENTATION_CONTEXT ( 'NONE', 'WORKASPACE' ) );
#70 = VERTEX_POINT ( 'NONE', #170 ) ;
#71 = CARTESIAN_POINT ( 'NONE',  ( 9.486885886765724862, -0.2636606085587738790, -6.996220727038680032 ) ) ;
#72 = CARTESIAN_POINT ( 'NONE',  ( 7.234747573542422927, 1.986633563944614433, 6.712227924078428387 ) ) ;
#73 = FILL_AREA_STYLE_COLOUR ( '', #101 ) ;
#74 = FACE_BOUND ( 'NONE', #165, .T. ) ;
#75 = CARTESIAN_POINT ( 'NONE',  ( 9.435376982006561164, -0.5211030426447135211, -6.981767182948574124 ) ) ;
#76 = CARTESIAN_POINT ( 'NONE',  ( 43.00000000000000000, 0.000000000000000000, 0.000000000000000000 ) ) ;
#77 = AXIS2_PLACEMENT_3D ( 'NONE', #222, #251, #105 ) ;
#78 = CARTESIAN_POINT ( 'NONE',  ( 9.234723709089168509, -1.003872331890494740, 6.928513884018093094 ) ) ;
#79 = CARTESIAN_POINT ( 'NONE',  ( 8.730377801624737089, -1.597957915044079913, 6.817741208852980961 ) ) ;
#80 = CYLINDRICAL_SURFACE ( 'NONE', #217, 2.000000000000000000 ) ;
#81 = CARTESIAN_POINT ( 'NONE',  ( 9.089584772079769337, -1.220756428606235344, 6.893607041439429040 ) ) ;
#82 = EDGE_LOOP ( 'NONE', ( #137 ) ) ;
#83 = CARTESIAN_POINT ( 'NONE',  ( 5.992830690723859099, -1.321159223105738523, -6.874839635074177835 ) ) ;
#84 = AXIS2_PLACEMENT_3D ( 'NONE', #21, #196, #288 ) ;
#85 = EDGE_LOOP ( 'NONE', ( #253 ) ) ;
#86 = CARTESIAN_POINT ( 'NONE',  ( 5.992830690723859099, 1.321159223105738523, 6.874839635074177835 ) ) ;
#87 = CARTESIAN_POINT ( 'NONE',  ( 9.486891335408076387, 0.2633913472731422289, -6.996222736472787140 ) ) ;
#88 = EDGE_LOOP ( 'NONE', ( #283 ) ) ;
#89 = CARTESIAN_POINT ( 'NONE',  ( 9.500000000000001776, -1.626303258728256651E-16, 7.000000000000000000 ) ) ;
#90 = AXIS2_PLACEMENT_3D ( 'NONE', #290, #246, #240 ) ;
#91 = CARTESIAN_POINT ( 'NONE',  ( 9.396346535563479208, -0.6487826489021599752, -6.970924272643943986 ) ) ;
#92 =( NAMED_UNIT ( * ) SI_UNIT ( $, .STERADIAN. ) SOLID_ANGLE_UNIT ( ) );
#93 =( NAMED_UNIT ( * ) PLANE_ANGLE_UNIT ( ) SI_UNIT ( $, .RADIAN. ) );
#94 = SURFACE_SIDE_STYLE ('',( #316 ) ) ;
#95 = FACE_OUTER_BOUND ( 'NONE', #88, .T. ) ;
#96 = AXIS2_PLACEMENT_3D ( 'NONE', #221, #198, #269 ) ;
#97 = CARTESIAN_POINT ( 'NONE',  ( 8.018895029590666468, -1.935969192517092985, -6.727015297699582952 ) ) ;
#98 = DIRECTION ( 'NONE',  ( 0.000000000000000000, 0.000000000000000000, 1.000000000000000000 ) ) ;
#99 = UNCERTAINTY_MEASURE_WITH_UNIT (LENGTH_MEASURE( 1.000000000000000082E-05 ), #178, 'distance_accuracy_value', 'NONE');
#100 = FACE_BOUND ( 'NONE', #36, .T. ) ;
#101 = COLOUR_RGB ( '',0.7764705882352941346, 0.7568627450980391913, 0.7372549019607843590 ) ;
#102 = ADVANCED_FACE ( 'NONE', ( #120, #219 ), #61, .T. ) ;
#103 = CYLINDRICAL_SURFACE ( 'NONE', #164, 9.500000000000005329 ) ;
#104 = UNCERTAINTY_MEASURE_WITH_UNIT (LENGTH_MEASURE( 1.000000000000000082E-05 ), #117, 'distance_accuracy_value', 'NONE');
#105 = DIRECTION ( 'NONE',  ( 0.000000000000000000, 0.000000000000000000, -1.000000000000000000 ) ) ;
#106 = CARTESIAN_POINT ( 'NONE',  ( 41.49999999999999289, 0.000000000000000000, 0.000000000000000000 ) ) ;
#107 = CARTESIAN_POINT ( 'NONE',  ( 8.018895029590666468, 1.935969192517092985, 6.727015297699582952 ) ) ;
#108 = ORIENTED_EDGE ( 'NONE', *, *, #31, .F. ) ;
#109 = CARTESIAN_POINT ( 'NONE',  ( 6.979725891775403923, 1.935586691976381779, -6.727125645283256183 ) ) ;
#110 = AXIS2_PLACEMENT_3D ( 'NONE', #53, #220, #293 ) ;
#111 = CARTESIAN_POINT ( 'NONE',  ( 7.370116228607364484, 2.000086104380975449, -6.708178261138932008 ) ) ;
#112 = CARTESIAN_POINT ( 'NONE',  ( 9.396346535563479208, 0.6487826489021599752, 6.970924272643943986 ) ) ;
#113 = CARTESIAN_POINT ( 'NONE',  ( 5.500056009797519074, 0.1318003588677941484, -6.999983997202043007 ) ) ;
#114 = CARTESIAN_POINT ( 'NONE',  ( 40.00000000000000000, 0.000000000000000000, 7.000000000000002665 ) ) ;
#115 = CARTESIAN_POINT ( 'NONE',  ( 7.761421847467224744, -1.987180762732975614, -6.712065564793263661 ) ) ;
#116 = ADVANCED_FACE ( 'NONE', ( #267, #95 ), #242, .T. ) ;
#117 =( LENGTH_UNIT ( ) NAMED_UNIT ( * ) SI_UNIT ( .MILLI., .METRE. ) );
#118 = MANIFOLD_SOLID_BREP ( 'Cut-Extrude1', #300 ) ;
#119 = AXIS2_PLACEMENT_3D ( 'NONE', #2, #298, #322 ) ;
#120 = FACE_OUTER_BOUND ( 'NONE', #156, .T. ) ;
#121 = CARTESIAN_POINT ( 'NONE',  ( 8.508077821012140163, 1.746968330274872638, 6.779297230211255076 ) ) ;
#122 = CARTESIAN_POINT ( 'NONE',  ( 9.005165782867898372, -1.323364765228637552, -6.874406388487427577 ) ) ;
#123 = FACE_OUTER_BOUND ( 'NONE', #85, .T. ) ;
#124 = B_SPLINE_CURVE_WITH_KNOTS ( 'NONE', 3,
 ( #25, #297, #52, #127, #249, #301, #78, #81, #158, #79, #155, #183, #29, #203, #278, #275, #277, #160, #54, #129, #58, #252, #276, #228, #184, #57, #161, #33, #126, #132, #229, #191, #34, #167, #86, #312, #38, #67, #17, #139, #315, #72, #40, #144, #235, #107, #6, #121, #10, #64, #207, #308, #241, #112, #172, #261, #238, #89 ),
 .UNSPECIFIED., .T., .F.,
 ( 4, 2, 2, 2, 2, 2, 2, 2, 2, 2, 2, 2, 2, 2, 2, 2, 2, 2, 2, 2, 2, 2, 2, 2, 2, 2, 2, 2, 4 ),
 ( 0.000000000000000000, 0.0003928108448618230814, 0.0007856216897236461627, 0.001178432534585469298, 0.001571243379447292325, 0.002356865069170938597, 0.002749675914032759239, 0.003142486758894582483, 0.003535297603756403558, 0.003928108448618224634, 0.004713730138341865918, 0.005106540983203685692, 0.005499351828065506334, 0.005892162672927326976, 0.006284973517789146751, 0.007070595207512787167, 0.007463406052374607809, 0.007856216897236426716, 0.008249027742098248225, 0.008641838586960069735, 0.009034649431821887774, 0.009427460276683709284, 0.009820271121545530793, 0.01021308196640735230, 0.01099870365613100053, 0.01139151450099282897, 0.01178432534585465742, 0.01217713619071648240, 0.01256994703557831085 ),
 .UNSPECIFIED. ) ;
#125 = PRESENTATION_STYLE_ASSIGNMENT (( #272 ) ) ;
#126 = CARTESIAN_POINT ( 'NONE',  ( 5.500056009797519074, -0.1318003588677941484, 6.999983997202043007 ) ) ;
#127 = CARTESIAN_POINT ( 'NONE',  ( 9.435655350820805864, -0.5199524433800036816, 6.981844816148541355 ) ) ;
#128 = ORIENTED_EDGE ( 'NONE', *, *, #14, .T. ) ;
#129 = CARTESIAN_POINT ( 'NONE',  ( 6.490204064754155233, -1.746292916079221325, 6.779483643592844722 ) ) ;
#130 = STYLED_ITEM ( 'NONE', ( #125 ), #28 ) ;
#131 = FACE_OUTER_BOUND ( 'NONE', #262, .T. ) ;
#132 = CARTESIAN_POINT ( 'NONE',  ( 5.499888525698342079, 0.2610426872097859063, 7.000031849797815120 ) ) ;
#133 = VERTEX_POINT ( 'NONE', #215 ) ;
#134 = ORIENTED_EDGE ( 'NONE', *, *, #303, .F. ) ;
#135 = CIRCLE ( 'NONE', #84, 7.000000000000002665 ) ;
#136 = CARTESIAN_POINT ( 'NONE',  ( 5.703414891121686203, 0.8884439563535901918, -6.944449705707822496 ) ) ;
#137 = ORIENTED_EDGE ( 'NONE', *, *, #318, .F. ) ;
#138 = CARTESIAN_POINT ( 'NONE',  ( 9.005603351506703547, 1.322869345845431921, -6.874502372252739413 ) ) ;
#139 = CARTESIAN_POINT ( 'NONE',  ( 6.853337219325693397, 1.897174229582900162, 6.738211824498034019 ) ) ;
#140 =( GEOMETRIC_REPRESENTATION_CONTEXT ( 3 ) GLOBAL_UNCERTAINTY_ASSIGNED_CONTEXT ( ( #104 ) ) GLOBAL_UNIT_ASSIGNED_CONTEXT ( ( #117, #93, #92 ) ) REPRESENTATION_CONTEXT ( 'NONE', 'WORKASPACE' ) );
#141 = CARTESIAN_POINT ( 'NONE',  ( 5.603147246947255411, 0.6473023638615457154, -6.971062618311932191 ) ) ;
#142 = VERTEX_POINT ( 'NONE', #264 ) ;
#143 = CARTESIAN_POINT ( 'NONE',  ( 6.494841309208952751, -1.733925575223948634, -6.782258415721988953 ) ) ;
#144 = CARTESIAN_POINT ( 'NONE',  ( 7.631135858525214033, 2.000047926892093653, 6.708189643461916596 ) ) ;
#145 =( NAMED_UNIT ( * ) PLANE_ANGLE_UNIT ( ) SI_UNIT ( $, .RADIAN. ) );
#146 = EDGE_CURVE ( 'NONE', #213, #213, #135, .T. ) ;
#147 = APPLICATION_PROTOCOL_DEFINITION ( 'draft international standard', 'automotive_design', 1998, #49 ) ;
#148 = PLANE ( 'NONE',  #96 ) ;
#149 = DIRECTION ( 'NONE',  ( -1.000000000000000000, -0.000000000000000000, -0.000000000000000000 ) ) ;
#150 =( NAMED_UNIT ( * ) SI_UNIT ( $, .STERADIAN. ) SOLID_ANGLE_UNIT ( ) );
#151 = ADVANCED_FACE ( 'NONE', ( #74, #123 ), #148, .F. ) ;
#152 = PLANE ( 'NONE',  #77 ) ;
#153 = DIRECTION ( 'NONE',  ( 0.000000000000000000, 0.000000000000000000, 1.000000000000000000 ) ) ;
#154 = CIRCLE ( 'NONE', #51, 9.500000000000003553 ) ;
#155 = CARTESIAN_POINT ( 'NONE',  ( 8.508453078299064387, -1.746645116476648552, 6.779378394943107011 ) ) ;
#156 = EDGE_LOOP ( 'NONE', ( #162 ) ) ;
#157 = FACE_OUTER_BOUND ( 'NONE', #68, .T. ) ;
#158 = CARTESIAN_POINT ( 'NONE',  ( 9.005603351506703547, -1.322869345845431921, 6.874502372252739413 ) ) ;
#159 = CIRCLE ( 'NONE', #174, 9.500000000000005329 ) ;
#160 = CARTESIAN_POINT ( 'NONE',  ( 6.979725891775403923, -1.935586691976381779, 6.727125645283256183 ) ) ;
#161 = CARTESIAN_POINT ( 'NONE',  ( 5.564998853760701358, -0.5225777989337824225, 6.981662529645753956 ) ) ;
#162 = ORIENTED_EDGE ( 'NONE', *, *, #250, .F. ) ;
#163 = CARTESIAN_POINT ( 'NONE',  ( 6.270597139458280900, 1.599017193891166144, -6.817531761756294273 ) ) ;
#164 = AXIS2_PLACEMENT_3D ( 'NONE', #274, #200, #223 ) ;
#165 = EDGE_LOOP ( 'NONE', ( #192 ) ) ;
#166 = CARTESIAN_POINT ( 'NONE',  ( 9.296213096854549107, 0.8892579790429944175, -6.944352187521592334 ) ) ;
#167 = CARTESIAN_POINT ( 'NONE',  ( 5.910529672231294995, 1.220891589701988744, 6.893581199168648865 ) ) ;
#168 = CARTESIAN_POINT ( 'NONE',  ( 9.435655350820805864, 0.5199524433800036816, -6.981844816148541355 ) ) ;
#169 = CARTESIAN_POINT ( 'NONE',  ( 9.234723709089168509, 1.003872331890494740, -6.928513884018093094 ) ) ;
#170 = CARTESIAN_POINT ( 'NONE',  ( 40.00000000000000000, 0.000000000000000000, 9.500000000000005329 ) ) ;
#171 = CARTESIAN_POINT ( 'NONE',  ( 8.508077821012140163, -1.746968330274872638, -6.779297230211255076 ) ) ;
#172 = CARTESIAN_POINT ( 'NONE',  ( 9.435376982006561164, 0.5211030426447135211, 6.981767182948574124 ) ) ;
#173 = CARTESIAN_POINT ( 'NONE',  ( 43.00000000000000000, 0.000000000000000000, 0.000000000000000000 ) ) ;
#174 = AXIS2_PLACEMENT_3D ( 'NONE', #50, #149, #153 ) ;
#175 = AXIS2_PLACEMENT_3D ( 'NONE', #317, #43, #177 ) ;
#176 = ADVANCED_FACE ( 'NONE', ( #48 ), #152, .F. ) ;
#177 = DIRECTION ( 'NONE',  ( 0.000000000000000000, 0.000000000000000000, -1.000000000000000000 ) ) ;
#178 =( LENGTH_UNIT ( ) NAMED_UNIT ( * ) SI_UNIT ( .MILLI., .METRE. ) );
#179 = CARTESIAN_POINT ( 'NONE',  ( 9.500000000000001776, -0.1328729097219937816, -7.000000000000000888 ) ) ;
#180 = CYLINDRICAL_SURFACE ( 'NONE', #46, 7.000000000000000888 ) ;
#181 = CIRCLE ( 'NONE', #226, 6.999999999999999112 ) ;
#182 = FACE_OUTER_BOUND ( 'NONE', #59, .T. ) ;
#183 = CARTESIAN_POINT ( 'NONE',  ( 8.147973272870403960, -1.896593612547576413, 6.738369076789056500 ) ) ;
#184 = CARTESIAN_POINT ( 'NONE',  ( 5.703414891121686203, -0.8884439563535901918, 6.944449705707822496 ) ) ;
#185 = DIRECTION ( 'NONE',  ( 0.000000000000000000, 0.000000000000000000, 1.000000000000000000 ) ) ;
#186 = ORIENTED_EDGE ( 'NONE', *, *, #303, .T. ) ;
#187 = EDGE_LOOP ( 'NONE', ( #7 ) ) ;
#188 = CARTESIAN_POINT ( 'NONE',  ( 8.730377801624737089, 1.597957915044079913, -6.817741208852980961 ) ) ;
#189 = MECHANICAL_DESIGN_GEOMETRIC_PRESENTATION_REPRESENTATION (  '', ( #56 ), #273 ) ;
#190 = EDGE_LOOP ( 'NONE', ( #186 ) ) ;
#191 = CARTESIAN_POINT ( 'NONE',  ( 5.702787746924896872, 0.8871658075827564272, 6.944612690286008139 ) ) ;
#192 = ORIENTED_EDGE ( 'NONE', *, *, #146, .F. ) ;
#193 = VERTEX_POINT ( 'NONE', #284 ) ;
#194 = CARTESIAN_POINT ( 'NONE',  ( 6.177237321607107923, -1.505762237629875377, -6.836780074312184041 ) ) ;
#195 = VERTEX_POINT ( 'NONE', #310 ) ;
#196 = DIRECTION ( 'NONE',  ( -1.000000000000000000, -0.000000000000000000, -0.000000000000000000 ) ) ;
#197 = CARTESIAN_POINT ( 'NONE',  ( 8.729905465984259649, -1.598313451048314349, -6.817655322462390366 ) ) ;
#198 = DIRECTION ( 'NONE',  ( 1.000000000000000000, 0.000000000000000000, 0.000000000000000000 ) ) ;
#199 = CARTESIAN_POINT ( 'NONE',  ( 6.978533742595823597, -1.935237636447212806, -6.727226167793653566 ) ) ;
#200 = DIRECTION ( 'NONE',  ( -1.000000000000000000, -0.000000000000000000, -0.000000000000000000 ) ) ;
#201 = DIRECTION ( 'NONE',  ( -0.000000000000000000, 0.000000000000000000, 1.000000000000000000 ) ) ;
#202 = DIRECTION ( 'NONE',  ( -0.000000000000000000, -0.000000000000000000, 1.000000000000000000 ) ) ;
#203 = CARTESIAN_POINT ( 'NONE',  ( 7.762745978160636717, -1.987041475874555596, 6.712107732003818938 ) ) ;
#204 = ADVANCED_FACE ( 'NONE', ( #157 ), #294, .F. ) ;
#205 = DIRECTION ( 'NONE',  ( 1.000000000000000000, 0.000000000000000000, 0.000000000000000000 ) ) ;
#206 = COLOUR_RGB ( '',0.7764705882352941346, 0.7568627450980391913, 0.7372549019607843590 ) ;
#207 = CARTESIAN_POINT ( 'NONE',  ( 9.089011744225285128, 1.221524040899470531, 6.893473387299962063 ) ) ;
#208 = ORIENTED_EDGE ( 'NONE', *, *, #20, .F. ) ;
#209 = CARTESIAN_POINT ( 'NONE',  ( 5.702787746924896872, -0.8871658075827564272, -6.944612690286008139 ) ) ;
#210 = CARTESIAN_POINT ( 'NONE',  ( 6.490204064754155233, 1.746292916079221325, -6.779483643592844722 ) ) ;
#211 = MECHANICAL_DESIGN_GEOMETRIC_PRESENTATION_REPRESENTATION (  '', ( #130 ), #69 ) ;
#212 = CARTESIAN_POINT ( 'NONE',  ( 7.762745978160636717, 1.987041475874555596, -6.712107732003818938 ) ) ;
#213 = VERTEX_POINT ( 'NONE', #114 ) ;
#214 = CARTESIAN_POINT ( 'NONE',  ( 5.499888525698342079, -0.2610426872097859063, -7.000031849797815120 ) ) ;
#215 = CARTESIAN_POINT ( 'NONE',  ( 9.500000000000001776, 0.000000000000000000, 7.000000000000000888 ) ) ;
#216 = SURFACE_STYLE_USAGE ( .BOTH. , #94 ) ;
#217 = AXIS2_PLACEMENT_3D ( 'NONE', #320, #202, #205 ) ;
#218 = ADVANCED_FACE ( 'NONE', ( #30, #100, #55, #247 ), #180, .T. ) ;
#219 = FACE_BOUND ( 'NONE', #187, .T. ) ;
#220 = DIRECTION ( 'NONE',  ( 0.000000000000000000, 0.000000000000000000, 1.000000000000000000 ) ) ;
#221 = CARTESIAN_POINT ( 'NONE',  ( 40.00000000000000000, 9.500000000000005329, 0.000000000000000000 ) ) ;
#222 = CARTESIAN_POINT ( 'NONE',  ( -2.004988522795584786E-16, 5.500000000000005329, 0.000000000000000000 ) ) ;
#223 = DIRECTION ( 'NONE',  ( 0.000000000000000000, 0.000000000000000000, 1.000000000000000000 ) ) ;
#224 = DIRECTION ( 'NONE',  ( -1.000000000000000000, -0.000000000000000000, -0.000000000000000000 ) ) ;
#225 = CARTESIAN_POINT ( 'NONE',  ( 0.000000000000000000, 0.000000000000000000, 0.000000000000000000 ) ) ;
#226 = AXIS2_PLACEMENT_3D ( 'NONE', #12, #282, #230 ) ;
#227 = EDGE_CURVE ( 'NONE', #195, #195, #24, .T. ) ;
#228 = CARTESIAN_POINT ( 'NONE',  ( 5.766293639281745875, -1.005573473014547581, 6.928260705410964171 ) ) ;
#229 = CARTESIAN_POINT ( 'NONE',  ( 5.552701440454314685, 0.5255173936034566173, 6.984458878246900149 ) ) ;
#230 = DIRECTION ( 'NONE',  ( 0.000000000000000000, 0.000000000000000000, 1.000000000000000000 ) ) ;
#231 = AXIS2_PLACEMENT_3D ( 'NONE', #173, #243, #287 ) ;
#232 = CARTESIAN_POINT ( 'NONE',  ( 5.552701440454314685, -0.5255173936034566173, -6.984458878246900149 ) ) ;
#233 = CARTESIAN_POINT ( 'NONE',  ( 9.500000000000000000, 0.1328729097219921995, -6.999999999999999112 ) ) ;
#234 = CARTESIAN_POINT ( 'NONE',  ( 8.147973272870403960, 1.896593612547576413, -6.738369076789056500 ) ) ;
#235 = CARTESIAN_POINT ( 'NONE',  ( 7.761421847467224744, 1.987180762732975614, 6.712065564793263661 ) ) ;
#236 = ADVANCED_FACE ( 'NONE', ( #131, #299 ), #103, .T. ) ;
#237 = CARTESIAN_POINT ( 'NONE',  ( 9.500000000000001776, 1.626303258728256651E-16, -7.000000000000000000 ) ) ;
#238 = CARTESIAN_POINT ( 'NONE',  ( 9.500000000000001776, 0.1328729097219937816, 7.000000000000000888 ) ) ;
#239 = CARTESIAN_POINT ( 'NONE',  ( 5.513209139039284779, 0.2645355679088474132, -6.996193262561372528 ) ) ;
#240 = DIRECTION ( 'NONE',  ( 0.000000000000000000, 0.000000000000000000, 1.000000000000000000 ) ) ;
#241 = CARTESIAN_POINT ( 'NONE',  ( 9.295896173694821130, 0.8898348396013819883, 6.944270883158618624 ) ) ;
#242 = CONICAL_SURFACE ( 'NONE', #175, 6.999999999999999112, 0.7853981633974463916 ) ;
#243 = DIRECTION ( 'NONE',  ( -1.000000000000000000, -0.000000000000000000, -0.000000000000000000 ) ) ;
#244 = SHAPE_DEFINITION_REPRESENTATION ( #65, #28 ) ;
#245 = CARTESIAN_POINT ( 'NONE',  ( 7.367406292895790187, -1.999951807442586604, -6.708218300742919027 ) ) ;
#246 = DIRECTION ( 'NONE',  ( -1.000000000000000000, -0.000000000000000000, -0.000000000000000000 ) ) ;
#247 = FACE_OUTER_BOUND ( 'NONE', #281, .T. ) ;
#248 = FILL_AREA_STYLE ('',( #22 ) ) ;
#249 = CARTESIAN_POINT ( 'NONE',  ( 9.396862274927171299, -0.6473598323664969678, 6.971063929205214116 ) ) ;
#250 = EDGE_CURVE ( 'NONE', #193, #193, #154, .T. ) ;
#251 = DIRECTION ( 'NONE',  ( 1.000000000000000000, 0.000000000000000000, 0.000000000000000000 ) ) ;
#252 = CARTESIAN_POINT ( 'NONE',  ( 5.993421668581459194, -1.321852327708042063, 6.874707648399437154 ) ) ;
#253 = ORIENTED_EDGE ( 'NONE', *, *, #20, .T. ) ;
#254 = CARTESIAN_POINT ( 'NONE',  ( 8.021219012530091064, 1.935381103778393008, -6.727185445341067549 ) ) ;
#255 = CARTESIAN_POINT ( 'NONE',  ( 6.854710131316717359, 1.897605775779491744, -6.738087761030704392 ) ) ;
#256 = CARTESIAN_POINT ( 'NONE',  ( 9.089584772079769337, 1.220756428606235344, -6.893607041439429040 ) ) ;
#257 = PRODUCT ( '76.04.03.0007', '76.04.03.0007', '', ( #44 ) ) ;
#258 = VERTEX_POINT ( 'NONE', #42 ) ;
#259 = ADVANCED_FACE ( 'NONE', ( #26, #182 ), #80, .F. ) ;
#260 = CARTESIAN_POINT ( 'NONE',  ( 5.911130081222310650, 1.221641574287992693, -6.893443716731381343 ) ) ;
#261 = CARTESIAN_POINT ( 'NONE',  ( 9.486885886765724862, 0.2636606085587738790, 6.996220727038680032 ) ) ;
#262 = EDGE_LOOP ( 'NONE', ( #208 ) ) ;
#263 = B_SPLINE_CURVE_WITH_KNOTS ( 'NONE', 3,
 ( #237, #233, #87, #168, #279, #166, #169, #256, #138, #188, #41, #234, #254, #212, #9, #111, #66, #109, #255, #210, #163, #35, #260, #39, #136, #141, #11, #239, #113, #214, #232, #209, #305, #311, #83, #194, #13, #143, #280, #62, #199, #47, #245, #319, #115, #97, #45, #171, #197, #122, #16, #292, #271, #91, #75, #71, #179, #265 ),
 .UNSPECIFIED., .T., .F.,
 ( 4, 2, 2, 2, 2, 2, 2, 2, 2, 2, 2, 2, 2, 2, 2, 2, 2, 2, 2, 2, 2, 2, 2, 2, 2, 2, 2, 2, 4 ),
 ( 0.000000000000000000, 0.0003928108448618230814, 0.0007856216897236461627, 0.001178432534585469298, 0.001571243379447292325, 0.002356865069170938597, 0.002749675914032759239, 0.003142486758894582483, 0.003535297603756403558, 0.003928108448618224634, 0.004713730138341865918, 0.005106540983203685692, 0.005499351828065506334, 0.005892162672927326976, 0.006284973517789146751, 0.007070595207512787167, 0.007463406052374607809, 0.007856216897236426716, 0.008249027742098248225, 0.008641838586960069735, 0.009034649431821887774, 0.009427460276683709284, 0.009820271121545530793, 0.01021308196640735230, 0.01099870365613100053, 0.01139151450099282897, 0.01178432534585465742, 0.01217713619071648240, 0.01256994703557831085 ),
 .UNSPECIFIED. ) ;
#264 = CARTESIAN_POINT ( 'NONE',  ( 9.500000000000001776, -2.407412430484044816E-32, -7.000000000000000888 ) ) ;
#265 = CARTESIAN_POINT ( 'NONE',  ( 9.500000000000001776, 1.626303258728256651E-16, -7.000000000000000000 ) ) ;
#266 = APPLICATION_PROTOCOL_DEFINITION ( 'draft international standard', 'automotive_design', 1998, #32 ) ;
#267 = FACE_BOUND ( 'NONE', #285, .T. ) ;
#268 =( NAMED_UNIT ( * ) SI_UNIT ( $, .STERADIAN. ) SOLID_ANGLE_UNIT ( ) );
#269 = DIRECTION ( 'NONE',  ( 0.000000000000000000, 0.000000000000000000, -1.000000000000000000 ) ) ;
#270 =( NAMED_UNIT ( * ) PLANE_ANGLE_UNIT ( ) SI_UNIT ( $, .RADIAN. ) );
#271 = CARTESIAN_POINT ( 'NONE',  ( 9.295896173694821130, -0.8898348396013819883, -6.944270883158618624 ) ) ;
#272 = SURFACE_STYLE_USAGE ( .BOTH. , #27 ) ;
#273 =( GEOMETRIC_REPRESENTATION_CONTEXT ( 3 ) GLOBAL_UNCERTAINTY_ASSIGNED_CONTEXT ( ( #23 ) ) GLOBAL_UNIT_ASSIGNED_CONTEXT ( ( #289, #145, #268 ) ) REPRESENTATION_CONTEXT ( 'NONE', 'WORKASPACE' ) );
#274 = CARTESIAN_POINT ( 'NONE',  ( 0.000000000000000000, 0.000000000000000000, 0.000000000000000000 ) ) ;
#275 = CARTESIAN_POINT ( 'NONE',  ( 7.370116228607364484, -2.000086104380975449, 6.708178261138932008 ) ) ;
#276 = CARTESIAN_POINT ( 'NONE',  ( 5.911130081222310650, -1.221641574287992693, 6.893443716731381343 ) ) ;
#277 = CARTESIAN_POINT ( 'NONE',  ( 7.236800597737057750, -1.986934086600108174, 6.712138871111824834 ) ) ;
#278 = CARTESIAN_POINT ( 'NONE',  ( 7.632522109029011403, -1.999913025515744236, 6.708229863274453919 ) ) ;
#279 = CARTESIAN_POINT ( 'NONE',  ( 9.396862274927171299, 0.6473598323664969678, -6.971063929205214116 ) ) ;
#280 = CARTESIAN_POINT ( 'NONE',  ( 6.609478292796955756, -1.795665307985615078, -6.765970348065053486 ) ) ;
#281 = EDGE_LOOP ( 'NONE', ( #304 ) ) ;
#282 = DIRECTION ( 'NONE',  ( -1.000000000000000000, -0.000000000000000000, -0.000000000000000000 ) ) ;
#283 = ORIENTED_EDGE ( 'NONE', *, *, #318, .T. ) ;
#284 = CARTESIAN_POINT ( 'NONE',  ( 41.49999999999999289, 0.000000000000000000, 9.500000000000003553 ) ) ;
#285 = EDGE_LOOP ( 'NONE', ( #108 ) ) ;
#286 = VERTEX_POINT ( 'NONE', #15 ) ;
#287 = DIRECTION ( 'NONE',  ( 0.000000000000000000, 0.000000000000000000, 1.000000000000000000 ) ) ;
#288 = DIRECTION ( 'NONE',  ( 0.000000000000000000, 0.000000000000000000, 1.000000000000000000 ) ) ;
#289 =( LENGTH_UNIT ( ) NAMED_UNIT ( * ) SI_UNIT ( .MILLI., .METRE. ) );
#290 = CARTESIAN_POINT ( 'NONE',  ( -4.009977045591169573E-16, 0.000000000000000000, 0.000000000000000000 ) ) ;
#291 = PRODUCT_RELATED_PRODUCT_CATEGORY ( 'part', '', ( #257 ) ) ;
#292 = CARTESIAN_POINT ( 'NONE',  ( 9.234459410772664967, -1.004355444134897635, -6.928446179753782630 ) ) ;
#293 = DIRECTION ( 'NONE',  ( 1.000000000000000000, 0.000000000000000000, 0.000000000000000000 ) ) ;
#294 = PLANE ( 'NONE',  #314 ) ;
#295 = PRODUCT_DEFINITION_FORMATION_WITH_SPECIFIED_SOURCE ( 'ANY', '', #257, .NOT_KNOWN. ) ;
#296 = PRODUCT_DEFINITION_CONTEXT ( 'detailed design', #49, 'design' ) ;
#297 = CARTESIAN_POINT ( 'NONE',  ( 9.500000000000000000, -0.1328729097219921995, 6.999999999999999112 ) ) ;
#298 = DIRECTION ( 'NONE',  ( -1.000000000000000000, -0.000000000000000000, -0.000000000000000000 ) ) ;
#299 = FACE_OUTER_BOUND ( 'NONE', #309, .T. ) ;
#300 = CLOSED_SHELL ( 'NONE', ( #204, #102, #236, #151, #218, #116, #176, #259 ) ) ;
#301 = CARTESIAN_POINT ( 'NONE',  ( 9.296213096854549107, -0.8892579790429944175, 6.944352187521592334 ) ) ;
#302 = ORIENTED_EDGE ( 'NONE', *, *, #14, .F. ) ;
#303 = EDGE_CURVE ( 'NONE', #133, #133, #124, .T. ) ;
#304 = ORIENTED_EDGE ( 'NONE', *, *, #146, .T. ) ;
#305 = CARTESIAN_POINT ( 'NONE',  ( 5.765501804863589541, -1.004245093456140214, -6.928457968091154662 ) ) ;
#306 = ORIENTED_EDGE ( 'NONE', *, *, #227, .F. ) ;
#307 = PRESENTATION_LAYER_ASSIGNMENT (  '', '', ( #130 ) ) ;
#308 = CARTESIAN_POINT ( 'NONE',  ( 9.234459410772664967, 1.004355444134897635, 6.928446179753782630 ) ) ;
#309 = EDGE_LOOP ( 'NONE', ( #37 ) ) ;
#310 = CARTESIAN_POINT ( 'NONE',  ( 43.00000000000000000, 0.000000000000000000, 8.000000000000007105 ) ) ;
#311 = CARTESIAN_POINT ( 'NONE',  ( 5.910529672231294995, -1.220891589701988744, -6.893581199168648865 ) ) ;
#312 = CARTESIAN_POINT ( 'NONE',  ( 6.177237321607107923, 1.505762237629875377, 6.836780074312184041 ) ) ;
#313 = PRESENTATION_STYLE_ASSIGNMENT (( #216 ) ) ;
#314 = AXIS2_PLACEMENT_3D ( 'NONE', #76, #4, #201 ) ;
#315 = CARTESIAN_POINT ( 'NONE',  ( 6.978533742595823597, 1.935237636447212806, 6.727226167793653566 ) ) ;
#316 = SURFACE_STYLE_FILL_AREA ( #18 ) ;
#317 = CARTESIAN_POINT ( 'NONE',  ( 1.499999999999999112, 0.000000000000000000, 0.000000000000000000 ) ) ;
#318 = EDGE_CURVE ( 'NONE', #286, #286, #181, .T. ) ;
#319 = CARTESIAN_POINT ( 'NONE',  ( 7.631135858525214033, -2.000047926892093653, -6.708189643461916596 ) ) ;
#320 = CARTESIAN_POINT ( 'NONE',  ( 7.500000000000001776, -2.407412430484044816E-32, -9.500000000000005329 ) ) ;
#321 = PRODUCT_DEFINITION ( 'UNKNOWN', '', #295, #296 ) ;
#322 = DIRECTION ( 'NONE',  ( 0.000000000000000000, 0.000000000000000000, 1.000000000000000000 ) ) ;
ENDSEC;
END-ISO-10303-21;
