ISO-10303-21;
HEADER;
FILE_DESCRIPTION (( 'STEP AP214' ),
    '1' );
FILE_NAME ('76.04.03.0005.step',
    '2021-04-02T18:00:21',
    ( '' ),
    ( '' ),
    'SwSTEP 2.0',
    'SolidWorks 2021',
    '' );
FILE_SCHEMA (( 'AUTOMOTIVE_DESIGN' ));
ENDSEC;

DATA;
#1 = EDGE_CURVE ( 'NONE', #119, #119, #192, .T. ) ;
#2 = AXIS2_PLACEMENT_3D ( 'NONE', #255, #88, #234 ) ;
#3 = CARTESIAN_POINT ( 'NONE',  ( 0.000000000000000000, 0.000000000000000000, 0.000000000000000000 ) ) ;
#4 = UNCERTAINTY_MEASURE_WITH_UNIT (LENGTH_MEASURE( 1.000000000000000082E-05 ), #78, 'distance_accuracy_value', 'NONE');
#5 = FACE_BOUND ( 'NONE', #237, .T. ) ;
#6 = APPLICATION_CONTEXT ( 'automotive_design' ) ;
#7 = VERTEX_POINT ( 'NONE', #288 ) ;
#8 = CARTESIAN_POINT ( 'NONE',  ( 4.287683528830541491, -1.589300441376832795, -4.740737794717341025 ) ) ;
#9 = DIRECTION ( 'NONE',  ( -1.000000000000000000, 0.000000000000000000, -0.000000000000000000 ) ) ;
#10 = CARTESIAN_POINT ( 'NONE',  ( 3.228699494468174169, 0.9770515933240230266, 4.904395295079966743 ) ) ;
#11 = DIRECTION ( 'NONE',  ( 0.000000000000000000, 0.000000000000000000, -1.000000000000000000 ) ) ;
#12 = DIRECTION ( 'NONE',  ( -1.000000000000000000, -0.000000000000000000, -0.000000000000000000 ) ) ;
#13 = CARTESIAN_POINT ( 'NONE',  ( 3.690483084190255170, 1.396116313793227759, 4.801880093366744262 ) ) ;
#14 = CARTESIAN_POINT ( 'NONE',  ( 5.307176393628817657, -1.397070075508275000, 4.801584135810098353 ) ) ;
#15 = CARTESIAN_POINT ( 'NONE',  ( 4.605180623664971051, 1.600018042433559273, 4.737081618913771663 ) ) ;
#16 = VERTEX_POINT ( 'NONE', #114 ) ;
#17 = CONICAL_SURFACE ( 'NONE', #64, 4.999999999999999112, 0.7853981633974468357 ) ;
#18 = MANIFOLD_SOLID_BREP ( 'Cut-Extrude1', #185 ) ;
#19 = CARTESIAN_POINT ( 'NONE',  ( 5.704302147398458089, 1.058495106074707648, 4.887254036013562342 ) ) ;
#20 = UNCERTAINTY_MEASURE_WITH_UNIT (LENGTH_MEASURE( 1.000000000000000082E-05 ), #173, 'distance_accuracy_value', 'NONE');
#21 = ORIENTED_EDGE ( 'NONE', *, *, #209, .T. ) ;
#22 = AXIS2_PLACEMENT_3D ( 'NONE', #299, #123, #77 ) ;
#23 = CARTESIAN_POINT ( 'NONE',  ( 6.048322318164369271, -0.4167683636793793611, -4.983665363227496314 ) ) ;
#24 = CARTESIAN_POINT ( 'NONE',  ( 6.048398716803445652, 0.4164570910027821093, -4.983689229185110925 ) ) ;
#25 = UNCERTAINTY_MEASURE_WITH_UNIT (LENGTH_MEASURE( 1.000000000000000082E-05 ), #276, 'distance_accuracy_value', 'NONE');
#26 = DIRECTION ( 'NONE',  ( 0.000000000000000000, 0.000000000000000000, 1.000000000000000000 ) ) ;
#27 = PRODUCT_CONTEXT ( 'NONE', #6, 'mechanical' ) ;
#28 = FACE_OUTER_BOUND ( 'NONE', #29, .T. ) ;
#29 = EDGE_LOOP ( 'NONE', ( #54 ) ) ;
#30 = AXIS2_PLACEMENT_3D ( 'NONE', #304, #247, #154 ) ;
#31 = PRESENTATION_LAYER_ASSIGNMENT (  '', '', ( #127 ) ) ;
#32 = CARTESIAN_POINT ( 'NONE',  ( 4.605180623664971051, -1.600018042433559273, -4.737081618913771663 ) ) ;
#33 = DIRECTION ( 'NONE',  ( -1.000000000000000000, -0.000000000000000000, -0.000000000000000000 ) ) ;
#34 = CARTESIAN_POINT ( 'NONE',  ( 2.952116927792507450, 0.4185597827194367793, -4.983528150331256512 ) ) ;
#35 = CARTESIAN_POINT ( 'NONE',  ( 1.499999999999999556, 0.000000000000000000, 0.000000000000000000 ) ) ;
#36 = FILL_AREA_STYLE ('',( #160 ) ) ;
#37 = CARTESIAN_POINT ( 'NONE',  ( 5.936709577323874498, -0.7119314275663003455, 4.950015642177405084 ) ) ;
#38 = DIRECTION ( 'NONE',  ( 1.000000000000000000, 0.000000000000000000, 0.000000000000000000 ) ) ;
#39 = CARTESIAN_POINT ( 'NONE',  ( 2.952116927792507450, -0.4185597827194367793, 4.983528150331256512 ) ) ;
#40 = AXIS2_PLACEMENT_3D ( 'NONE', #273, #33, #106 ) ;
#41 = DIRECTION ( 'NONE',  ( 1.000000000000000000, 0.000000000000000000, 0.000000000000000000 ) ) ;
#42 = ADVANCED_FACE ( 'NONE', ( #5, #100 ), #262, .F. ) ;
#43 = CARTESIAN_POINT ( 'NONE',  ( 4.394271170286605965, 1.599981910608651026, 4.737093822808320809 ) ) ;
#44 = PRODUCT_DEFINITION_SHAPE ( 'NONE', 'NONE',  #298 ) ;
#45 = PRODUCT_RELATED_PRODUCT_CATEGORY ( 'part', '', ( #91 ) ) ;
#46 = EDGE_LOOP ( 'NONE', ( #75 ) ) ;
#47 = CARTESIAN_POINT ( 'NONE',  ( 4.083355271313154233, 1.548360136501588658, -4.754266563456073236 ) ) ;
#48 = EDGE_LOOP ( 'NONE', ( #291 ) ) ;
#49 = CARTESIAN_POINT ( 'NONE',  ( 6.089482303838160249, 0.2110002384605000891, -4.996606222338497716 ) ) ;
#50 = EDGE_LOOP ( 'NONE', ( #213 ) ) ;
#51 = CARTESIAN_POINT ( 'NONE',  ( 3.982475004905551064, -1.517656904279730989, -4.764295941592002315 ) ) ;
#52 = VERTEX_POINT ( 'NONE', #224 ) ;
#53 = CARTESIAN_POINT ( 'NONE',  ( 3.294863709375627003, 1.057597712406928236, -4.887454760458924241 ) ) ;
#54 = ORIENTED_EDGE ( 'NONE', *, *, #187, .F. ) ;
#55 = AXIS2_PLACEMENT_3D ( 'NONE', #249, #9, #197 ) ;
#56 = CARTESIAN_POINT ( 'NONE',  ( 3.229103786318485270, 0.9775721955539335983, -4.904290378754618374 ) ) ;
#57 = FACE_OUTER_BOUND ( 'NONE', #48, .T. ) ;
#58 = CARTESIAN_POINT ( 'NONE',  ( 3.113206633933879974, -0.8047538401928571172, 4.935593457058645050 ) ) ;
#59 = CARTESIAN_POINT ( 'NONE',  ( 31.00000000000000000, 0.000000000000000000, 0.000000000000000000 ) ) ;
#60 = CARTESIAN_POINT ( 'NONE',  ( 6.100000000000000533, -8.809142651444723526E-17, 5.000000000000000888 ) ) ;
#61 = PLANE ( 'NONE',  #113 ) ;
#62 = CARTESIAN_POINT ( 'NONE',  ( 3.062911089477190707, -0.7111038461901143526, 4.950127167846448906 ) ) ;
#63 = CARTESIAN_POINT ( 'NONE',  ( 4.709534619576107417, 1.589711517697346643, 4.740599893489441996 ) ) ;
#64 = AXIS2_PLACEMENT_3D ( 'NONE', #35, #38, #11 ) ;
#65 = CARTESIAN_POINT ( 'NONE',  ( 6.099999999999999645, 0.000000000000000000, 5.000000000000000888 ) ) ;
#66 = CONICAL_SURFACE ( 'NONE', #244, 6.000000000000003553, 0.7853981633974471688 ) ;
#67 = FILL_AREA_STYLE_COLOUR ( '', #266 ) ;
#68 = CARTESIAN_POINT ( 'NONE',  ( 5.018004077861285772, -1.517419029584870849, -4.764367578042565832 ) ) ;
#69 = EDGE_LOOP ( 'NONE', ( #313 ) ) ;
#70 = CARTESIAN_POINT ( 'NONE',  ( 30.00000000000000000, 0.000000000000000000, 0.000000000000000000 ) ) ;
#71 = EDGE_LOOP ( 'NONE', ( #264 ) ) ;
#72 = CARTESIAN_POINT ( 'NONE',  ( 1.499999999999999556, 0.000000000000000000, 4.999999999999999112 ) ) ;
#73 = CARTESIAN_POINT ( 'NONE',  ( 2.910554614151318553, 0.2116545826127687324, -4.996593585085063793 ) ) ;
#74 = EDGE_CURVE ( 'NONE', #16, #16, #200, .T. ) ;
#75 = ORIENTED_EDGE ( 'NONE', *, *, #1, .T. ) ;
#76 = CARTESIAN_POINT ( 'NONE',  ( 3.113206633933879974, 0.8047538401928571172, -4.935593457058645050 ) ) ;
#77 = DIRECTION ( 'NONE',  ( 0.000000000000000000, 0.000000000000000000, -1.000000000000000000 ) ) ;
#78 =( LENGTH_UNIT ( ) NAMED_UNIT ( * ) SI_UNIT ( .MILLI., .METRE. ) );
#79 = CARTESIAN_POINT ( 'NONE',  ( 3.112824074934162244, -0.8041005809600070275, -4.935701093271283924 ) ) ;
#80 = FACE_BOUND ( 'NONE', #69, .T. ) ;
#81 = EDGE_CURVE ( 'NONE', #52, #52, #210, .T. ) ;
#82 = FACE_OUTER_BOUND ( 'NONE', #46, .T. ) ;
#83 = FACE_BOUND ( 'NONE', #71, .T. ) ;
#84 = CARTESIAN_POINT ( 'NONE',  ( 0.000000000000000000, 0.000000000000000000, 0.000000000000000000 ) ) ;
#85 = CARTESIAN_POINT ( 'NONE',  ( 4.606230517863103557, -1.599927408048192223, 4.737112231601239287 ) ) ;
#86 = CARTESIAN_POINT ( 'NONE',  ( -9.207863503100804757E-17, 3.500000000000003997, 0.000000000000000000 ) ) ;
#87 =( NAMED_UNIT ( * ) PLANE_ANGLE_UNIT ( ) SI_UNIT ( $, .RADIAN. ) );
#88 = DIRECTION ( 'NONE',  ( -0.000000000000000000, -0.000000000000000000, 1.000000000000000000 ) ) ;
#89 = CARTESIAN_POINT ( 'NONE',  ( 6.017132676048076334, 0.5189085906167438811, 4.973953507013995967 ) ) ;
#90 = CARTESIAN_POINT ( 'NONE',  ( 5.307054745911875315, 1.397217800205094562, 4.801543308040442604 ) ) ;
#91 = PRODUCT ( '76.04.03.0005', '76.04.03.0005', '', ( #27 ) ) ;
#92 = APPLICATION_CONTEXT ( 'automotive_design' ) ;
#93 = EDGE_CURVE ( 'NONE', #111, #111, #163, .T. ) ;
#94 = CARTESIAN_POINT ( 'NONE',  ( 4.710508670967840317, 1.589594437640316826, -4.740639677278789321 ) ) ;
#95 = EDGE_LOOP ( 'NONE', ( #21 ) ) ;
#96 = CARTESIAN_POINT ( 'NONE',  ( 4.082454086211050104, -1.548098700590048837, -4.754351811178198162 ) ) ;
#97 = FILL_AREA_STYLE ('',( #67 ) ) ;
#98 = CARTESIAN_POINT ( 'NONE',  ( 5.771380929598380227, 0.9769741417713152520, -4.904414810339023489 ) ) ;
#99 = CARTESIAN_POINT ( 'NONE',  ( 3.294500965124597336, -1.057204497118341635, -4.887542372218232956 ) ) ;
#100 = FACE_OUTER_BOUND ( 'NONE', #126, .T. ) ;
#101 = VERTEX_POINT ( 'NONE', #65 ) ;
#102 = CARTESIAN_POINT ( 'NONE',  ( 5.887430960420487303, -0.8036735037552400485, -4.935772407495974790 ) ) ;
#103 = ADVANCED_FACE ( 'NONE', ( #83, #278 ), #17, .T. ) ;
#104 = FACE_BOUND ( 'NONE', #195, .T. ) ;
#105 = CARTESIAN_POINT ( 'NONE',  ( 4.916065015030602225, 1.548540399721004768, 4.754207893023148834 ) ) ;
#106 = DIRECTION ( 'NONE',  ( 0.000000000000000000, 0.000000000000000000, 1.000000000000000000 ) ) ;
#107 = PRODUCT_DEFINITION_FORMATION_WITH_SPECIFIED_SOURCE ( 'ANY', '', #91, .NOT_KNOWN. ) ;
#108 = DIRECTION ( 'NONE',  ( 0.000000000000000000, 0.000000000000000000, -1.000000000000000000 ) ) ;
#109 = CARTESIAN_POINT ( 'NONE',  ( 6.048398716803445652, -0.4164570910027821093, 4.983689229185110925 ) ) ;
#110 = CARTESIAN_POINT ( 'NONE',  ( 4.917352774793741332, -1.548205747987535963, 4.754317405039898858 ) ) ;
#111 = VERTEX_POINT ( 'NONE', #72 ) ;
#112 = CARTESIAN_POINT ( 'NONE',  ( 5.771380929598380227, -0.9769741417713152520, 4.904414810339023489 ) ) ;
#113 = AXIS2_PLACEMENT_3D ( 'NONE', #86, #41, #108 ) ;
#114 = CARTESIAN_POINT ( 'NONE',  ( 28.99999999999999645, 0.000000000000000000, 5.000000000000001776 ) ) ;
#115 = CARTESIAN_POINT ( 'NONE',  ( 5.771486265951716099, 0.9768205802846798846, 4.904443078797954492 ) ) ;
#116 = B_SPLINE_CURVE_WITH_KNOTS ( 'NONE', 3,
 ( #267, #317, #49, #24, #174, #238, #220, #98, #312, #242, #191, #246, #188, #94, #194, #295, #297, #47, #221, #122, #196, #53, #56, #76, #146, #165, #34, #73, #190, #120, #225, #300, #79, #170, #99, #271, #172, #51, #96, #8, #153, #32, #214, #274, #68, #149, #290, #272, #263, #102, #129, #218, #23, #315, #143, #292 ),
 .UNSPECIFIED., .T., .F.,
 ( 4, 2, 2, 2, 2, 2, 2, 2, 2, 2, 2, 2, 2, 2, 2, 2, 2, 2, 2, 2, 2, 2, 2, 2, 2, 2, 2, 4 ),
 ( 0.000000000000000000, 0.0003146881725221890055, 0.0006293763450443780110, 0.0009440645175665671792, 0.001258752690088756456, 0.001888129035133135659, 0.002202817207655325370, 0.002517505380177515080, 0.002832193552699704357, 0.003146881725221894067, 0.003776258070266273054, 0.004090946242788461897, 0.004405634415310650739, 0.004720322587832839582, 0.005035010760355028425, 0.005664387105399406978, 0.005979075277921595821, 0.006293763450443784664, 0.006923139795488161483, 0.007237827968010349458, 0.007552516140532538301, 0.007867204313054725409, 0.008181892485576913385, 0.008811268830621291070, 0.009125957003143479046, 0.009440645175665668756, 0.009755333348187856732, 0.01007002152071004644 ),
 .UNSPECIFIED. ) ;
#117 = ORIENTED_EDGE ( 'NONE', *, *, #81, .F. ) ;
#118 = ORIENTED_EDGE ( 'NONE', *, *, #81, .T. ) ;
#119 = VERTEX_POINT ( 'NONE', #240 ) ;
#120 = CARTESIAN_POINT ( 'NONE',  ( 2.899913538215947106, -0.2091004783840758052, -5.000027667768780049 ) ) ;
#121 = ORIENTED_EDGE ( 'NONE', *, *, #187, .T. ) ;
#122 = CARTESIAN_POINT ( 'NONE',  ( 3.691374501153253274, 1.396614222770661717, -4.801732458908710477 ) ) ;
#123 = DIRECTION ( 'NONE',  ( 1.000000000000000000, 0.000000000000000000, 0.000000000000000000 ) ) ;
#124 = APPLICATION_PROTOCOL_DEFINITION ( 'draft international standard', 'automotive_design', 1998, #92 ) ;
#125 = FACE_OUTER_BOUND ( 'NONE', #318, .T. ) ;
#126 = EDGE_LOOP ( 'NONE', ( #118 ) ) ;
#127 = STYLED_ITEM ( 'NONE', ( #305 ), #134 ) ;
#128 = ADVANCED_FACE ( 'NONE', ( #226, #104 ), #66, .T. ) ;
#129 = CARTESIAN_POINT ( 'NONE',  ( 5.936591213280386192, -0.7121540339520981977, -4.949981439084235824 ) ) ;
#130 = PLANE ( 'NONE',  #55 ) ;
#131 = CARTESIAN_POINT ( 'NONE',  ( 6.089482303838160249, -0.2110002384605000891, 4.996606222338497716 ) ) ;
#132 = FACE_OUTER_BOUND ( 'NONE', #269, .T. ) ;
#133 = CARTESIAN_POINT ( 'NONE',  ( 31.00000000000000000, 0.000000000000000000, 0.000000000000000000 ) ) ;
#134 = ADVANCED_BREP_SHAPE_REPRESENTATION ( '76.04.03.0005', ( #18, #257 ), #222 ) ;
#135 =( NAMED_UNIT ( * ) SI_UNIT ( $, .STERADIAN. ) SOLID_ANGLE_UNIT ( ) );
#136 = CARTESIAN_POINT ( 'NONE',  ( 3.062579770376250288, 0.7104558025390953491, 4.950223336938929464 ) ) ;
#137 = FACE_OUTER_BOUND ( 'NONE', #189, .T. ) ;
#138 = CARTESIAN_POINT ( 'NONE',  ( 5.887500759911080905, -0.8035730104243322680, 4.935791073625398262 ) ) ;
#139 = ADVANCED_FACE ( 'NONE', ( #301 ), #130, .F. ) ;
#140 = PRODUCT_DEFINITION_CONTEXT ( 'detailed design', #92, 'design' ) ;
#141 = CARTESIAN_POINT ( 'NONE',  ( 6.100000000000000533, -8.809142651444723526E-17, 5.000000000000000888 ) ) ;
#142 = ORIENTED_EDGE ( 'NONE', *, *, #285, .F. ) ;
#143 = CARTESIAN_POINT ( 'NONE',  ( 6.100000000000001421, -0.1064568721275317015, -5.000000000000000888 ) ) ;
#144 = ORIENTED_EDGE ( 'NONE', *, *, #268, .T. ) ;
#145 = CARTESIAN_POINT ( 'NONE',  ( 31.00000000000000000, 0.000000000000000000, 6.000000000000003553 ) ) ;
#146 = CARTESIAN_POINT ( 'NONE',  ( 3.062911089477190707, 0.7111038461901143526, -4.950127167846448906 ) ) ;
#147 = EDGE_LOOP ( 'NONE', ( #193 ) ) ;
#148 = APPLICATION_PROTOCOL_DEFINITION ( 'draft international standard', 'automotive_design', 1998, #6 ) ;
#149 = CARTESIAN_POINT ( 'NONE',  ( 5.307054745911875315, -1.397217800205094562, -4.801543308040442604 ) ) ;
#150 = ADVANCED_FACE ( 'NONE', ( #80, #275, #57, #132 ), #229, .T. ) ;
#151 = DIRECTION ( 'NONE',  ( -1.000000000000000000, -0.000000000000000000, -0.000000000000000000 ) ) ;
#152 =( NAMED_UNIT ( * ) PLANE_ANGLE_UNIT ( ) SI_UNIT ( $, .RADIAN. ) );
#153 = CARTESIAN_POINT ( 'NONE',  ( 4.394271170286605965, -1.599981910608651026, -4.737093822808320809 ) ) ;
#154 = DIRECTION ( 'NONE',  ( 0.000000000000000000, 0.000000000000000000, 1.000000000000000000 ) ) ;
#155 = CARTESIAN_POINT ( 'NONE',  ( 2.900043435418092397, -0.1055410596049274619, 4.999986100667269895 ) ) ;
#156 = DIRECTION ( 'NONE',  ( -1.000000000000000000, -0.000000000000000000, -0.000000000000000000 ) ) ;
#157 = DIRECTION ( 'NONE',  ( 0.000000000000000000, 0.000000000000000000, 1.000000000000000000 ) ) ;
#158 = CARTESIAN_POINT ( 'NONE',  ( 4.289156324175791291, -1.589514670147680553, 4.740665858514914177 ) ) ;
#159 = CARTESIAN_POINT ( 'NONE',  ( 2.910554614151318553, -0.2116545826127687324, 4.996593585085063793 ) ) ;
#160 = FILL_AREA_STYLE_COLOUR ( '', #261 ) ;
#161 = CARTESIAN_POINT ( 'NONE',  ( 3.983263501142017660, -1.517921279877725960, 4.764211000957057962 ) ) ;
#162 = CARTESIAN_POINT ( 'NONE',  ( 6.100000000000001421, 0.1064568721275317015, 5.000000000000000888 ) ) ;
#163 = CIRCLE ( 'NONE', #30, 4.999999999999999112 ) ;
#164 = PRESENTATION_STYLE_ASSIGNMENT (( #223 ) ) ;
#165 = CARTESIAN_POINT ( 'NONE',  ( 2.982709558483264800, 0.5183849273425720217, -4.974002887516446592 ) ) ;
#166 = ORIENTED_EDGE ( 'NONE', *, *, #74, .F. ) ;
#167 = DIRECTION ( 'NONE',  ( 0.000000000000000000, 0.000000000000000000, 1.000000000000000000 ) ) ;
#168 =( GEOMETRIC_REPRESENTATION_CONTEXT ( 3 ) GLOBAL_UNCERTAINTY_ASSIGNED_CONTEXT ( ( #20 ) ) GLOBAL_UNIT_ASSIGNED_CONTEXT ( ( #173, #152, #169 ) ) REPRESENTATION_CONTEXT ( 'NONE', 'WORKASPACE' ) );
#169 =( NAMED_UNIT ( * ) SI_UNIT ( $, .STERADIAN. ) SOLID_ANGLE_UNIT ( ) );
#170 = CARTESIAN_POINT ( 'NONE',  ( 3.228699494468174169, -0.9770515933240230266, -4.904395295079966743 ) ) ;
#171 = SURFACE_SIDE_STYLE ('',( #239 ) ) ;
#172 = CARTESIAN_POINT ( 'NONE',  ( 3.690483084190255170, -1.396116313793227759, -4.801880093366744262 ) ) ;
#173 =( LENGTH_UNIT ( ) NAMED_UNIT ( * ) SI_UNIT ( .MILLI., .METRE. ) );
#174 = CARTESIAN_POINT ( 'NONE',  ( 6.017292160468755036, 0.5184643352351209211, -4.974002005271689342 ) ) ;
#175 = DIRECTION ( 'NONE',  ( 0.000000000000000000, 0.000000000000000000, 1.000000000000000000 ) ) ;
#176 = CARTESIAN_POINT ( 'NONE',  ( 6.099999999999999645, -0.1064568721275318819, 5.000000000000000000 ) ) ;
#177 = DIRECTION ( 'NONE',  ( -1.000000000000000000, -0.000000000000000000, -0.000000000000000000 ) ) ;
#178 = DIRECTION ( 'NONE',  ( 1.000000000000000000, 0.000000000000000000, 0.000000000000000000 ) ) ;
#179 = CARTESIAN_POINT ( 'NONE',  ( 5.484428572657345846, -1.278220547835520415, 4.836193874793403680 ) ) ;
#180 = CARTESIAN_POINT ( 'NONE',  ( 5.018896343895980827, -1.517096310676901316, 4.764469806433504928 ) ) ;
#181 = AXIS2_PLACEMENT_3D ( 'NONE', #133, #12, #157 ) ;
#182 = CARTESIAN_POINT ( 'NONE',  ( 3.515982901837106489, -1.278739985921553579, 4.836086421445450867 ) ) ;
#183 = SHAPE_DEFINITION_REPRESENTATION ( #44, #134 ) ;
#184 = CARTESIAN_POINT ( 'NONE',  ( 4.287683528830541491, 1.589300441376832795, 4.740737794717341025 ) ) ;
#185 = CLOSED_SHELL ( 'NONE', ( #139, #128, #228, #42, #150, #103, #233, #212 ) ) ;
#186 = CARTESIAN_POINT ( 'NONE',  ( 5.887430960420487303, 0.8036735037552400485, 4.935772407495974790 ) ) ;
#187 = EDGE_CURVE ( 'NONE', #265, #265, #116, .T. ) ;
#188 = CARTESIAN_POINT ( 'NONE',  ( 4.917352774793741332, 1.548205747987535963, -4.754317405039898858 ) ) ;
#189 = EDGE_LOOP ( 'NONE', ( #117 ) ) ;
#190 = CARTESIAN_POINT ( 'NONE',  ( 2.900043435418092397, 0.1055410596049274619, -4.999986100667269895 ) ) ;
#191 = CARTESIAN_POINT ( 'NONE',  ( 5.307176393628817657, 1.397070075508275000, -4.801584135810098353 ) ) ;
#192 = CIRCLE ( 'NONE', #256, 3.500000000000003997 ) ;
#193 = ORIENTED_EDGE ( 'NONE', *, *, #268, .F. ) ;
#194 = CARTESIAN_POINT ( 'NONE',  ( 4.606230517863103557, 1.599927408048192223, -4.737112231601239287 ) ) ;
#195 = EDGE_LOOP ( 'NONE', ( #144 ) ) ;
#196 = CARTESIAN_POINT ( 'NONE',  ( 3.515982901837106489, 1.278739985921553579, -4.836086421445450867 ) ) ;
#197 = DIRECTION ( 'NONE',  ( -0.000000000000000000, 0.000000000000000000, 1.000000000000000000 ) ) ;
#198 = CARTESIAN_POINT ( 'NONE',  ( 5.018004077861285772, 1.517419029584870849, 4.764367578042565832 ) ) ;
#199 = CARTESIAN_POINT ( 'NONE',  ( 28.99999999999999645, 0.000000000000000000, 0.000000000000000000 ) ) ;
#200 = CIRCLE ( 'NONE', #40, 5.000000000000001776 ) ;
#201 = AXIS2_PLACEMENT_3D ( 'NONE', #70, #151, #243 ) ;
#202 = CARTESIAN_POINT ( 'NONE',  ( 0.000000000000000000, 0.000000000000000000, 0.000000000000000000 ) ) ;
#203 = SURFACE_STYLE_USAGE ( .BOTH. , #254 ) ;
#204 = CARTESIAN_POINT ( 'NONE',  ( 4.395967551705655119, -1.600071837028311128, 4.737063449243500202 ) ) ;
#205 = CARTESIAN_POINT ( 'NONE',  ( 4.083355271313154233, -1.548360136501588658, 4.754266563456073236 ) ) ;
#206 = STYLED_ITEM ( 'NONE', ( #164 ), #18 ) ;
#207 = MECHANICAL_DESIGN_GEOMETRIC_PRESENTATION_REPRESENTATION (  '', ( #127 ), #282 ) ;
#208 = CARTESIAN_POINT ( 'NONE',  ( 5.704306479626001014, -1.058481340895581102, 4.887256080036163297 ) ) ;
#209 = EDGE_CURVE ( 'NONE', #7, #7, #286, .T. ) ;
#210 = CIRCLE ( 'NONE', #251, 7.000000000000001776 ) ;
#211 = AXIS2_PLACEMENT_3D ( 'NONE', #3, #241, #167 ) ;
#212 = ADVANCED_FACE ( 'NONE', ( #28, #125 ), #302, .F. ) ;
#213 = ORIENTED_EDGE ( 'NONE', *, *, #209, .F. ) ;
#214 = CARTESIAN_POINT ( 'NONE',  ( 4.709534619576107417, -1.589711517697346643, -4.740599893489441996 ) ) ;
#215 = AXIS2_PLACEMENT_3D ( 'NONE', #202, #277, #308 ) ;
#216 = ORIENTED_EDGE ( 'NONE', *, *, #74, .T. ) ;
#217 =( NAMED_UNIT ( * ) PLANE_ANGLE_UNIT ( ) SI_UNIT ( $, .RADIAN. ) );
#218 = CARTESIAN_POINT ( 'NONE',  ( 6.017132676048076334, -0.5189085906167438811, -4.973953507013995967 ) ) ;
#219 = CARTESIAN_POINT ( 'NONE',  ( -1.841572700620160951E-16, 0.000000000000000000, 0.000000000000000000 ) ) ;
#220 = CARTESIAN_POINT ( 'NONE',  ( 5.887500759911080905, 0.8035730104243322680, -4.935791073625398262 ) ) ;
#221 = CARTESIAN_POINT ( 'NONE',  ( 3.983263501142017660, 1.517921279877725960, -4.764211000957057962 ) ) ;
#222 =( GEOMETRIC_REPRESENTATION_CONTEXT ( 3 ) GLOBAL_UNCERTAINTY_ASSIGNED_CONTEXT ( ( #4 ) ) GLOBAL_UNIT_ASSIGNED_CONTEXT ( ( #78, #217, #270 ) ) REPRESENTATION_CONTEXT ( 'NONE', 'WORKASPACE' ) );
#223 = SURFACE_STYLE_USAGE ( .BOTH. , #171 ) ;
#224 = CARTESIAN_POINT ( 'NONE',  ( 28.99999999999999645, 0.000000000000000000, 7.000000000000001776 ) ) ;
#225 = CARTESIAN_POINT ( 'NONE',  ( 2.942263883717048945, -0.4208986191467862237, -4.986048383654671845 ) ) ;
#226 = FACE_OUTER_BOUND ( 'NONE', #50, .T. ) ;
#227 = CARTESIAN_POINT ( 'NONE',  ( 3.691374501153253274, -1.396614222770661717, 4.801732458908710477 ) ) ;
#228 = ADVANCED_FACE ( 'NONE', ( #137, #284 ), #231, .T. ) ;
#229 = CYLINDRICAL_SURFACE ( 'NONE', #211, 5.000000000000000888 ) ;
#230 = SURFACE_STYLE_FILL_AREA ( #36 ) ;
#231 = CYLINDRICAL_SURFACE ( 'NONE', #215, 7.000000000000001776 ) ;
#232 = CARTESIAN_POINT ( 'NONE',  ( 2.899913538215947106, 0.2091004783840758052, 5.000027667768780049 ) ) ;
#233 = ADVANCED_FACE ( 'NONE', ( #82 ), #61, .F. ) ;
#234 = DIRECTION ( 'NONE',  ( 1.000000000000000000, 0.000000000000000000, 0.000000000000000000 ) ) ;
#235 = CARTESIAN_POINT ( 'NONE',  ( 3.982475004905551064, 1.517656904279730989, 4.764295941592002315 ) ) ;
#236 = CARTESIAN_POINT ( 'NONE',  ( 5.936591213280386192, 0.7121540339520981977, 4.949981439084235824 ) ) ;
#237 = EDGE_LOOP ( 'NONE', ( #166 ) ) ;
#238 = CARTESIAN_POINT ( 'NONE',  ( 5.936709577323874498, 0.7119314275663003455, -4.950015642177405084 ) ) ;
#239 = SURFACE_STYLE_FILL_AREA ( #97 ) ;
#240 = CARTESIAN_POINT ( 'NONE',  ( -1.841572700620160951E-16, 0.000000000000000000, 3.500000000000003997 ) ) ;
#241 = DIRECTION ( 'NONE',  ( -1.000000000000000000, -0.000000000000000000, -0.000000000000000000 ) ) ;
#242 = CARTESIAN_POINT ( 'NONE',  ( 5.484428572657345846, 1.278220547835520415, -4.836193874793403680 ) ) ;
#243 = DIRECTION ( 'NONE',  ( 0.000000000000000000, 0.000000000000000000, 1.000000000000000000 ) ) ;
#244 = AXIS2_PLACEMENT_3D ( 'NONE', #59, #156, #175 ) ;
#245 = DIRECTION ( 'NONE',  ( 0.000000000000000000, 0.000000000000000000, 1.000000000000000000 ) ) ;
#246 = CARTESIAN_POINT ( 'NONE',  ( 5.018896343895980827, 1.517096310676901316, -4.764469806433504928 ) ) ;
#247 = DIRECTION ( 'NONE',  ( -1.000000000000000000, -0.000000000000000000, -0.000000000000000000 ) ) ;
#248 = CARTESIAN_POINT ( 'NONE',  ( 3.112824074934162244, 0.8041005809600070275, 4.935701093271283924 ) ) ;
#249 = CARTESIAN_POINT ( 'NONE',  ( 31.00000000000000000, 0.000000000000000000, 0.000000000000000000 ) ) ;
#250 = CARTESIAN_POINT ( 'NONE',  ( 2.982709558483264800, -0.5183849273425720217, 4.974002887516446592 ) ) ;
#251 = AXIS2_PLACEMENT_3D ( 'NONE', #199, #177, #245 ) ;
#252 = CARTESIAN_POINT ( 'NONE',  ( 3.294500965124597336, 1.057204497118341635, 4.887542372218232956 ) ) ;
#253 = CARTESIAN_POINT ( 'NONE',  ( 2.942263883717048945, 0.4208986191467862237, 4.986048383654671845 ) ) ;
#254 = SURFACE_SIDE_STYLE ('',( #230 ) ) ;
#255 = CARTESIAN_POINT ( 'NONE',  ( 4.499999999999999112, 4.814824860968089633E-32, -7.000000000000001776 ) ) ;
#256 = AXIS2_PLACEMENT_3D ( 'NONE', #219, #311, #26 ) ;
#257 = AXIS2_PLACEMENT_3D ( 'NONE', #84, #279, #178 ) ;
#258 = CARTESIAN_POINT ( 'NONE',  ( 6.089475706034878755, 0.2111038839405535161, 4.996603993892516193 ) ) ;
#259 = B_SPLINE_CURVE_WITH_KNOTS ( 'NONE', 3,
 ( #60, #176, #131, #109, #306, #37, #138, #112, #208, #179, #14, #180, #110, #281, #85, #204, #158, #205, #161, #227, #182, #307, #283, #58, #62, #250, #39, #159, #155, #232, #253, #136, #248, #10, #252, #280, #13, #235, #310, #184, #43, #15, #63, #105, #198, #90, #287, #19, #115, #186, #236, #89, #260, #258, #162, #141 ),
 .UNSPECIFIED., .T., .F.,
 ( 4, 2, 2, 2, 2, 2, 2, 2, 2, 2, 2, 2, 2, 2, 2, 2, 2, 2, 2, 2, 2, 2, 2, 2, 2, 2, 2, 4 ),
 ( 0.000000000000000000, 0.0003146881725221890055, 0.0006293763450443780110, 0.0009440645175665671792, 0.001258752690088756456, 0.001888129035133135659, 0.002202817207655325370, 0.002517505380177515080, 0.002832193552699704357, 0.003146881725221894067, 0.003776258070266273054, 0.004090946242788461897, 0.004405634415310650739, 0.004720322587832839582, 0.005035010760355028425, 0.005664387105399406978, 0.005979075277921595821, 0.006293763450443784664, 0.006923139795488161483, 0.007237827968010349458, 0.007552516140532538301, 0.007867204313054725409, 0.008181892485576913385, 0.008811268830621291070, 0.009125957003143479046, 0.009440645175665668756, 0.009755333348187856732, 0.01007002152071004644 ),
 .UNSPECIFIED. ) ;
#260 = CARTESIAN_POINT ( 'NONE',  ( 6.048322318164369271, 0.4167683636793793611, 4.983665363227496314 ) ) ;
#261 = COLOUR_RGB ( '',0.7764705882352941346, 0.7568627450980391913, 0.7372549019607843590 ) ;
#262 = PLANE ( 'NONE',  #22 ) ;
#263 = CARTESIAN_POINT ( 'NONE',  ( 5.771486265951716099, -0.9768205802846798846, -4.904443078797954492 ) ) ;
#264 = ORIENTED_EDGE ( 'NONE', *, *, #1, .F. ) ;
#265 = VERTEX_POINT ( 'NONE', #314 ) ;
#266 = COLOUR_RGB ( '',0.7764705882352941346, 0.7568627450980391913, 0.7372549019607843590 ) ;
#267 = CARTESIAN_POINT ( 'NONE',  ( 6.100000000000000533, 8.809142651444723526E-17, -5.000000000000000888 ) ) ;
#268 = EDGE_CURVE ( 'NONE', #294, #294, #309, .T. ) ;
#269 = EDGE_LOOP ( 'NONE', ( #216 ) ) ;
#270 =( NAMED_UNIT ( * ) SI_UNIT ( $, .STERADIAN. ) SOLID_ANGLE_UNIT ( ) );
#271 = CARTESIAN_POINT ( 'NONE',  ( 3.516010339754370939, -1.278828149432289507, -4.836073378273226808 ) ) ;
#272 = CARTESIAN_POINT ( 'NONE',  ( 5.704302147398458089, -1.058495106074707648, -4.887254036013562342 ) ) ;
#273 = CARTESIAN_POINT ( 'NONE',  ( 28.99999999999999645, 0.000000000000000000, 0.000000000000000000 ) ) ;
#274 = CARTESIAN_POINT ( 'NONE',  ( 4.916065015030602225, -1.548540399721004768, -4.754207893023148834 ) ) ;
#275 = FACE_BOUND ( 'NONE', #293, .T. ) ;
#276 =( LENGTH_UNIT ( ) NAMED_UNIT ( * ) SI_UNIT ( .MILLI., .METRE. ) );
#277 = DIRECTION ( 'NONE',  ( -1.000000000000000000, -0.000000000000000000, -0.000000000000000000 ) ) ;
#278 = FACE_OUTER_BOUND ( 'NONE', #296, .T. ) ;
#279 = DIRECTION ( 'NONE',  ( 0.000000000000000000, 0.000000000000000000, 1.000000000000000000 ) ) ;
#280 = CARTESIAN_POINT ( 'NONE',  ( 3.516010339754370939, 1.278828149432289507, 4.836073378273226808 ) ) ;
#281 = CARTESIAN_POINT ( 'NONE',  ( 4.710508670967840317, -1.589594437640316826, 4.740639677278789321 ) ) ;
#282 =( GEOMETRIC_REPRESENTATION_CONTEXT ( 3 ) GLOBAL_UNCERTAINTY_ASSIGNED_CONTEXT ( ( #25 ) ) GLOBAL_UNIT_ASSIGNED_CONTEXT ( ( #276, #87, #135 ) ) REPRESENTATION_CONTEXT ( 'NONE', 'WORKASPACE' ) );
#283 = CARTESIAN_POINT ( 'NONE',  ( 3.229103786318485270, -0.9775721955539335983, 4.904290378754618374 ) ) ;
#284 = FACE_OUTER_BOUND ( 'NONE', #95, .T. ) ;
#285 = EDGE_CURVE ( 'NONE', #101, #101, #259, .T. ) ;
#286 = CIRCLE ( 'NONE', #201, 7.000000000000001776 ) ;
#287 = CARTESIAN_POINT ( 'NONE',  ( 5.484218626127617568, 1.278411476494968113, 4.836147196397736714 ) ) ;
#288 = CARTESIAN_POINT ( 'NONE',  ( 30.00000000000000000, 0.000000000000000000, 7.000000000000001776 ) ) ;
#289 = PRESENTATION_LAYER_ASSIGNMENT (  '', '', ( #206 ) ) ;
#290 = CARTESIAN_POINT ( 'NONE',  ( 5.484218626127617568, -1.278411476494968113, -4.836147196397736714 ) ) ;
#291 = ORIENTED_EDGE ( 'NONE', *, *, #93, .F. ) ;
#292 = CARTESIAN_POINT ( 'NONE',  ( 6.100000000000000533, 8.809142651444723526E-17, -5.000000000000000888 ) ) ;
#293 = EDGE_LOOP ( 'NONE', ( #121 ) ) ;
#294 = VERTEX_POINT ( 'NONE', #145 ) ;
#295 = CARTESIAN_POINT ( 'NONE',  ( 4.395967551705655119, 1.600071837028311128, -4.737063449243500202 ) ) ;
#296 = EDGE_LOOP ( 'NONE', ( #316 ) ) ;
#297 = CARTESIAN_POINT ( 'NONE',  ( 4.289156324175791291, 1.589514670147680553, -4.740665858514914177 ) ) ;
#298 = PRODUCT_DEFINITION ( 'UNKNOWN', '', #107, #140 ) ;
#299 = CARTESIAN_POINT ( 'NONE',  ( 28.99999999999999645, 7.000000000000001776, 0.000000000000000000 ) ) ;
#300 = CARTESIAN_POINT ( 'NONE',  ( 3.062579770376250288, -0.7104558025390953491, -4.950223336938929464 ) ) ;
#301 = FACE_OUTER_BOUND ( 'NONE', #147, .T. ) ;
#302 = CYLINDRICAL_SURFACE ( 'NONE', #2, 1.600000000000000755 ) ;
#303 = MECHANICAL_DESIGN_GEOMETRIC_PRESENTATION_REPRESENTATION (  '', ( #206 ), #168 ) ;
#304 = CARTESIAN_POINT ( 'NONE',  ( 1.499999999999999556, 0.000000000000000000, 0.000000000000000000 ) ) ;
#305 = PRESENTATION_STYLE_ASSIGNMENT (( #203 ) ) ;
#306 = CARTESIAN_POINT ( 'NONE',  ( 6.017292160468755036, -0.5184643352351209211, 4.974002005271689342 ) ) ;
#307 = CARTESIAN_POINT ( 'NONE',  ( 3.294863709375627003, -1.057597712406928236, 4.887454760458924241 ) ) ;
#308 = DIRECTION ( 'NONE',  ( 0.000000000000000000, 0.000000000000000000, 1.000000000000000000 ) ) ;
#309 = CIRCLE ( 'NONE', #181, 6.000000000000003553 ) ;
#310 = CARTESIAN_POINT ( 'NONE',  ( 4.082454086211050104, 1.548098700590048837, 4.754351811178198162 ) ) ;
#311 = DIRECTION ( 'NONE',  ( -1.000000000000000000, -0.000000000000000000, -0.000000000000000000 ) ) ;
#312 = CARTESIAN_POINT ( 'NONE',  ( 5.704306479626001014, 1.058481340895581102, -4.887256080036163297 ) ) ;
#313 = ORIENTED_EDGE ( 'NONE', *, *, #285, .T. ) ;
#314 = CARTESIAN_POINT ( 'NONE',  ( 6.099999999999999645, 4.814824860968089633E-32, -5.000000000000000888 ) ) ;
#315 = CARTESIAN_POINT ( 'NONE',  ( 6.089475706034878755, -0.2111038839405535161, -4.996603993892516193 ) ) ;
#316 = ORIENTED_EDGE ( 'NONE', *, *, #93, .T. ) ;
#317 = CARTESIAN_POINT ( 'NONE',  ( 6.099999999999999645, 0.1064568721275318819, -5.000000000000000000 ) ) ;
#318 = EDGE_LOOP ( 'NONE', ( #142 ) ) ;
ENDSEC;
END-ISO-10303-21;
