ISO-10303-21;
HEADER;
FILE_DESCRIPTION (( 'STEP AP214' ),
    '1' );
FILE_NAME ('76.04.03.0003.step',
    '2021-04-02T18:00:18',
    ( '' ),
    ( '' ),
    'SwSTEP 2.0',
    'SolidWorks 2021',
    '' );
FILE_SCHEMA (( 'AUTOMOTIVE_DESIGN' ));
ENDSEC;

DATA;
#1 = CONICAL_SURFACE ( 'NONE', #114, 2.999999999999998668, 0.7853981633974463916 ) ;
#2 = DIRECTION ( 'NONE',  ( 1.000000000000000000, 0.000000000000000000, 0.000000000000000000 ) ) ;
#3 = DIRECTION ( 'NONE',  ( 0.000000000000000000, 0.000000000000000000, 1.000000000000000000 ) ) ;
#4 = EDGE_CURVE ( 'NONE', #71, #71, #48, .T. ) ;
#5 =( LENGTH_UNIT ( ) NAMED_UNIT ( * ) SI_UNIT ( .MILLI., .METRE. ) );
#6 = ORIENTED_EDGE ( 'NONE', *, *, #172, .F. ) ;
#7 = CLOSED_SHELL ( 'NONE', ( #46, #78, #262, #209, #59, #140, #127, #32 ) ) ;
#8 = CARTESIAN_POINT ( 'NONE',  ( 2.910183360198649982, -0.7789291159944901066, -2.897408415284752792 ) ) ;
#9 = CARTESIAN_POINT ( 'NONE',  ( 2.488593323249359557, -0.7999039980042521591, -2.891393021344994985 ) ) ;
#10 = PRODUCT_DEFINITION_FORMATION_WITH_SPECIFIED_SOURCE ( 'ANY', '', #175, .NOT_KNOWN. ) ;
#11 = CARTESIAN_POINT ( 'NONE',  ( 2.910985013279371536, 0.7786701935997513147, -2.897477153669222538 ) ) ;
#12 = MANIFOLD_SOLID_BREP ( 'Cut-Extrude1', #7 ) ;
#13 =( NAMED_UNIT ( * ) SI_UNIT ( $, .STERADIAN. ) SOLID_ANGLE_UNIT ( ) );
#14 = UNCERTAINTY_MEASURE_WITH_UNIT (LENGTH_MEASURE( 1.000000000000000082E-05 ), #178, 'distance_accuracy_value', 'NONE');
#15 = FACE_BOUND ( 'NONE', #27, .T. ) ;
#16 = UNCERTAINTY_MEASURE_WITH_UNIT (LENGTH_MEASURE( 1.000000000000000082E-05 ), #145, 'distance_accuracy_value', 'NONE');
#17 = CARTESIAN_POINT ( 'NONE',  ( 2.595636755072557200, -0.8000674022809903807, 2.891347809711299455 ) ) ;
#18 = VERTEX_POINT ( 'NONE', #245 ) ;
#19 = CARTESIAN_POINT ( 'NONE',  ( 18.00000000000000000, 4.500000000000000888, 0.000000000000000000 ) ) ;
#20 = AXIS2_PLACEMENT_3D ( 'NONE', #195, #86, #85 ) ;
#21 = DIRECTION ( 'NONE',  ( -1.000000000000000000, -0.000000000000000000, -0.000000000000000000 ) ) ;
#22 = CARTESIAN_POINT ( 'NONE',  ( 18.00000000000000000, 0.000000000000000000, 0.000000000000000000 ) ) ;
#23 = CARTESIAN_POINT ( 'NONE',  ( 2.060217614191002689, 0.4914934534635551633, 2.960419820564035742 ) ) ;
#24 = AXIS2_PLACEMENT_3D ( 'NONE', #42, #40, #108 ) ;
#25 = VERTEX_POINT ( 'NONE', #188 ) ;
#26 = CARTESIAN_POINT ( 'NONE',  ( 19.00000000000000355, 0.000000000000000000, 4.500000000000000888 ) ) ;
#27 = EDGE_LOOP ( 'NONE', ( #234 ) ) ;
#28 = CARTESIAN_POINT ( 'NONE',  ( 1.921153661830899306, 0.2105270924643564412, -2.994176216504319754 ) ) ;
#29 = CIRCLE ( 'NONE', #157, 2.999999999999998668 ) ;
#30 = CARTESIAN_POINT ( 'NONE',  ( 1.921055294625000576, -0.2100908461807645955, -2.994203398438205266 ) ) ;
#31 = CARTESIAN_POINT ( 'NONE',  ( 3.338764023367694733, -0.4926994419101374811, -2.960206940443519841 ) ) ;
#32 = ADVANCED_FACE ( 'NONE', ( #160, #102 ), #84, .F. ) ;
#33 = CIRCLE ( 'NONE', #132, 4.000000000000001776 ) ;
#34 = CARTESIAN_POINT ( 'NONE',  ( 3.478610621913210466, -0.2113266179072534334, -2.994114549773281286 ) ) ;
#35 = DIRECTION ( 'NONE',  ( -1.000000000000000000, -0.000000000000000000, -0.000000000000000000 ) ) ;
#36 = DIRECTION ( 'NONE',  ( 0.000000000000000000, 0.000000000000000000, -1.000000000000000000 ) ) ;
#37 = PRODUCT_DEFINITION ( 'UNKNOWN', '', #10, #183 ) ;
#38 = CARTESIAN_POINT ( 'NONE',  ( 2.805394048332756629, -0.7999322656703312662, 2.891385200082222884 ) ) ;
#39 = CARTESIAN_POINT ( 'NONE',  ( 0.000000000000000000, 0.000000000000000000, 0.000000000000000000 ) ) ;
#40 = DIRECTION ( 'NONE',  ( -1.000000000000000000, -0.000000000000000000, -0.000000000000000000 ) ) ;
#41 = EDGE_CURVE ( 'NONE', #147, #147, #33, .T. ) ;
#42 = CARTESIAN_POINT ( 'NONE',  ( -2.112623243741537060E-16, 0.000000000000000000, 0.000000000000000000 ) ) ;
#43 = STYLED_ITEM ( 'NONE', ( #261 ), #12 ) ;
#44 = VERTEX_POINT ( 'NONE', #230 ) ;
#45 = CARTESIAN_POINT ( 'NONE',  ( 19.00000000000000355, 0.000000000000000000, 0.000000000000000000 ) ) ;
#46 = ADVANCED_FACE ( 'NONE', ( #264 ), #115, .F. ) ;
#47 = VERTEX_POINT ( 'NONE', #125 ) ;
#48 = B_SPLINE_CURVE_WITH_KNOTS ( 'NONE', 3,
 ( #235, #53, #171, #176, #208, #77, #58, #11, #260, #189, #170, #79, #54, #252, #112, #28, #110, #131, #30, #258, #80, #111, #9, #191, #8, #97, #192, #31, #177, #34, #221, #214 ),
 .UNSPECIFIED., .T., .F.,
 ( 4, 2, 2, 2, 2, 2, 2, 2, 2, 2, 2, 2, 2, 2, 2, 4 ),
 ( 0.000000000000000000, 0.0003140298225945293968, 0.0006280596451890587935, 0.0009420894677835882445, 0.001256119290378117587, 0.001570149112972647146, 0.001884178935567176489, 0.002198208758161706265, 0.002512238580756236041, 0.002826268403350765384, 0.003140298225945294293, 0.003768357871134353412, 0.004082387693728884055, 0.004396417516323413398, 0.004710447338917943608, 0.005024477161512472950 ),
 .UNSPECIFIED. ) ;
#49 =( GEOMETRIC_REPRESENTATION_CONTEXT ( 3 ) GLOBAL_UNCERTAINTY_ASSIGNED_CONTEXT ( ( #14 ) ) GLOBAL_UNIT_ASSIGNED_CONTEXT ( ( #178, #156, #13 ) ) REPRESENTATION_CONTEXT ( 'NONE', 'WORKASPACE' ) );
#50 = SURFACE_SIDE_STYLE ('',( #233 ) ) ;
#51 = EDGE_LOOP ( 'NONE', ( #6 ) ) ;
#52 = PRODUCT_CONTEXT ( 'NONE', #216, 'mechanical' ) ;
#53 = CARTESIAN_POINT ( 'NONE',  ( 3.499999999999998224, 0.1062192327973421335, -3.000000000000001332 ) ) ;
#54 = CARTESIAN_POINT ( 'NONE',  ( 2.208373063196236163, 0.6397347159768809188, -2.931965138252623948 ) ) ;
#55 = CIRCLE ( 'NONE', #239, 4.500000000000000888 ) ;
#56 = APPLICATION_CONTEXT ( 'automotive_design' ) ;
#57 = EDGE_LOOP ( 'NONE', ( #129 ) ) ;
#58 = CARTESIAN_POINT ( 'NONE',  ( 3.103276034891882862, 0.6987205349143893462, -2.917788673040720315 ) ) ;
#59 = ADVANCED_FACE ( 'NONE', ( #15, #158, #64, #137 ), #135, .T. ) ;
#60 = DIRECTION ( 'NONE',  ( -1.000000000000000000, 0.000000000000000000, -0.000000000000000000 ) ) ;
#61 = AXIS2_PLACEMENT_3D ( 'NONE', #63, #243, #66 ) ;
#62 = AXIS2_PLACEMENT_3D ( 'NONE', #164, #219, #2 ) ;
#63 = CARTESIAN_POINT ( 'NONE',  ( 2.699999999999997513, -2.407412430484044816E-32, -4.500000000000000888 ) ) ;
#64 = FACE_OUTER_BOUND ( 'NONE', #211, .T. ) ;
#65 = FACE_OUTER_BOUND ( 'NONE', #98, .T. ) ;
#66 = DIRECTION ( 'NONE',  ( 1.000000000000000000, 0.000000000000000000, 0.000000000000000000 ) ) ;
#67 = DIRECTION ( 'NONE',  ( -1.000000000000000000, -0.000000000000000000, -0.000000000000000000 ) ) ;
#68 = CARTESIAN_POINT ( 'NONE',  ( 1.900044693626509185, -0.1050428476239875508, 2.999988081700601494 ) ) ;
#69 = CYLINDRICAL_SURFACE ( 'NONE', #259, 4.500000000000000888 ) ;
#70 = FACE_OUTER_BOUND ( 'NONE', #213, .T. ) ;
#71 = VERTEX_POINT ( 'NONE', #105 ) ;
#72 = PRESENTATION_STYLE_ASSIGNMENT (( #150 ) ) ;
#73 = FILL_AREA_STYLE ('',( #251 ) ) ;
#74 = EDGE_LOOP ( 'NONE', ( #174 ) ) ;
#75 = AXIS2_PLACEMENT_3D ( 'NONE', #238, #60, #142 ) ;
#76 = SHAPE_DEFINITION_REPRESENTATION ( #217, #121 ) ;
#77 = CARTESIAN_POINT ( 'NONE',  ( 3.192115471481314248, 0.6392230513409553616, -2.932061079536042669 ) ) ;
#78 = ADVANCED_FACE ( 'NONE', ( #179, #263 ), #231, .T. ) ;
#79 = CARTESIAN_POINT ( 'NONE',  ( 2.296275808525187756, 0.6986204455912670142, -2.917817529576431479 ) ) ;
#80 = CARTESIAN_POINT ( 'NONE',  ( 2.060217614191002689, -0.4914934534635551633, -2.960419820564035742 ) ) ;
#81 = B_SPLINE_CURVE_WITH_KNOTS ( 'NONE', 3,
 ( #117, #159, #242, #119, #139, #199, #100, #222, #38, #17, #187, #201, #247, #268, #122, #91, #68, #87, #88, #200, #23, #143, #162, #182, #184, #144, #90, #181, #270, #266, #204, #123 ),
 .UNSPECIFIED., .T., .F.,
 ( 4, 2, 2, 2, 2, 2, 2, 2, 2, 2, 2, 2, 2, 2, 2, 4 ),
 ( 0.000000000000000000, 0.0003140298225945293968, 0.0006280596451890587935, 0.0009420894677835882445, 0.001256119290378117587, 0.001570149112972647146, 0.001884178935567176489, 0.002198208758161706265, 0.002512238580756236041, 0.002826268403350765384, 0.003140298225945294293, 0.003768357871134353412, 0.004082387693728884055, 0.004396417516323413398, 0.004710447338917943608, 0.005024477161512472950 ),
 .UNSPECIFIED. ) ;
#82 =( GEOMETRIC_REPRESENTATION_CONTEXT ( 3 ) GLOBAL_UNCERTAINTY_ASSIGNED_CONTEXT ( ( #218 ) ) GLOBAL_UNIT_ASSIGNED_CONTEXT ( ( #5, #210, #206 ) ) REPRESENTATION_CONTEXT ( 'NONE', 'WORKASPACE' ) );
#83 = ORIENTED_EDGE ( 'NONE', *, *, #136, .F. ) ;
#84 = CYLINDRICAL_SURFACE ( 'NONE', #61, 0.7999999999999999334 ) ;
#85 = DIRECTION ( 'NONE',  ( 0.000000000000000000, 0.000000000000000000, 1.000000000000000000 ) ) ;
#86 = DIRECTION ( 'NONE',  ( -1.000000000000000000, -0.000000000000000000, -0.000000000000000000 ) ) ;
#87 = CARTESIAN_POINT ( 'NONE',  ( 1.899955451671233142, 0.1043609731723586648, 3.000011879553334815 ) ) ;
#88 = CARTESIAN_POINT ( 'NONE',  ( 1.921055294625000576, 0.2100908461807645955, 2.994203398438205266 ) ) ;
#89 = CARTESIAN_POINT ( 'NONE',  ( 18.00000000000000000, 0.000000000000000000, 0.000000000000000000 ) ) ;
#90 = CARTESIAN_POINT ( 'NONE',  ( 3.191890983426895811, 0.6393867984489254308, 2.932023600225241555 ) ) ;
#91 = CARTESIAN_POINT ( 'NONE',  ( 1.921153661830899306, -0.2105270924643564412, 2.994176216504319754 ) ) ;
#92 = APPLICATION_PROTOCOL_DEFINITION ( 'draft international standard', 'automotive_design', 1998, #216 ) ;
#93 = ORIENTED_EDGE ( 'NONE', *, *, #224, .F. ) ;
#94 = AXIS2_PLACEMENT_3D ( 'NONE', #39, #220, #196 ) ;
#95 = PRESENTATION_LAYER_ASSIGNMENT (  '', '', ( #126 ) ) ;
#96 = EDGE_LOOP ( 'NONE', ( #237 ) ) ;
#97 = CARTESIAN_POINT ( 'NONE',  ( 3.103108391141977229, -0.6988642483624973867, -2.917755105396540927 ) ) ;
#98 = EDGE_LOOP ( 'NONE', ( #193 ) ) ;
#99 = CIRCLE ( 'NONE', #24, 2.000000000000002665 ) ;
#100 = CARTESIAN_POINT ( 'NONE',  ( 3.103276034891882862, -0.6987205349143893462, 2.917788673040720315 ) ) ;
#101 = SURFACE_SIDE_STYLE ('',( #116 ) ) ;
#102 = FACE_OUTER_BOUND ( 'NONE', #190, .T. ) ;
#103 = PLANE ( 'NONE',  #141 ) ;
#104 = CARTESIAN_POINT ( 'NONE',  ( 0.9999999999999997780, 0.000000000000000000, 0.000000000000000000 ) ) ;
#105 = CARTESIAN_POINT ( 'NONE',  ( 3.499999999999997335, -2.407412430484044816E-32, -3.000000000000000000 ) ) ;
#106 = DIRECTION ( 'NONE',  ( 0.000000000000000000, 0.000000000000000000, 1.000000000000000000 ) ) ;
#107 = FACE_OUTER_BOUND ( 'NONE', #74, .T. ) ;
#108 = DIRECTION ( 'NONE',  ( 0.000000000000000000, 0.000000000000000000, 1.000000000000000000 ) ) ;
#109 = EDGE_LOOP ( 'NONE', ( #133 ) ) ;
#110 = CARTESIAN_POINT ( 'NONE',  ( 1.900044693626509185, 0.1050428476239875508, -2.999988081700601494 ) ) ;
#111 = CARTESIAN_POINT ( 'NONE',  ( 2.281418850590172465, -0.7129790216509425127, -2.917921559917155960 ) ) ;
#112 = CARTESIAN_POINT ( 'NONE',  ( 2.001378340831781788, 0.4035480795171221269, -2.974317034154170258 ) ) ;
#113 = ORIENTED_EDGE ( 'NONE', *, *, #185, .F. ) ;
#114 = AXIS2_PLACEMENT_3D ( 'NONE', #168, #226, #244 ) ;
#115 = PLANE ( 'NONE',  #75 ) ;
#116 = SURFACE_STYLE_FILL_AREA ( #241 ) ;
#117 = CARTESIAN_POINT ( 'NONE',  ( 3.499999999999998668, 2.710505431213761085E-17, 3.000000000000000888 ) ) ;
#118 = PRESENTATION_LAYER_ASSIGNMENT (  '', '', ( #43 ) ) ;
#119 = CARTESIAN_POINT ( 'NONE',  ( 3.398427420106508556, -0.4039601529336269148, 2.974269738162408583 ) ) ;
#120 = DIRECTION ( 'NONE',  ( 0.000000000000000000, 0.000000000000000000, 1.000000000000000000 ) ) ;
#121 = ADVANCED_BREP_SHAPE_REPRESENTATION ( '76.04.03.0003', ( #12, #62 ), #82 ) ;
#122 = CARTESIAN_POINT ( 'NONE',  ( 2.001378340831781788, -0.4035480795171221269, 2.974317034154170258 ) ) ;
#123 = CARTESIAN_POINT ( 'NONE',  ( 3.499999999999998668, 2.710505431213761085E-17, 3.000000000000000888 ) ) ;
#124 = CARTESIAN_POINT ( 'NONE',  ( 0.000000000000000000, 0.000000000000000000, 0.000000000000000000 ) ) ;
#125 = CARTESIAN_POINT ( 'NONE',  ( -2.112623243741537060E-16, 0.000000000000000000, 2.000000000000002665 ) ) ;
#126 = STYLED_ITEM ( 'NONE', ( #72 ), #121 ) ;
#127 = ADVANCED_FACE ( 'NONE', ( #65 ), #103, .F. ) ;
#128 = VERTEX_POINT ( 'NONE', #26 ) ;
#129 = ORIENTED_EDGE ( 'NONE', *, *, #41, .F. ) ;
#130 = ORIENTED_EDGE ( 'NONE', *, *, #257, .F. ) ;
#131 = CARTESIAN_POINT ( 'NONE',  ( 1.899955451671233142, -0.1043609731723586648, -3.000011879553334815 ) ) ;
#132 = AXIS2_PLACEMENT_3D ( 'NONE', #155, #35, #240 ) ;
#133 = ORIENTED_EDGE ( 'NONE', *, *, #4, .T. ) ;
#134 = EDGE_LOOP ( 'NONE', ( #93 ) ) ;
#135 = CYLINDRICAL_SURFACE ( 'NONE', #94, 3.000000000000000000 ) ;
#136 = EDGE_CURVE ( 'NONE', #44, #44, #81, .T. ) ;
#137 = FACE_OUTER_BOUND ( 'NONE', #236, .T. ) ;
#138 = DIRECTION ( 'NONE',  ( 1.000000000000000000, 0.000000000000000000, 0.000000000000000000 ) ) ;
#139 = CARTESIAN_POINT ( 'NONE',  ( 3.339006520441565318, -0.4923966018059849348, 2.960259088327510391 ) ) ;
#140 = ADVANCED_FACE ( 'NONE', ( #203, #107 ), #1, .T. ) ;
#141 = AXIS2_PLACEMENT_3D ( 'NONE', #198, #138, #36 ) ;
#142 = DIRECTION ( 'NONE',  ( -0.000000000000000000, 0.000000000000000000, 1.000000000000000000 ) ) ;
#143 = CARTESIAN_POINT ( 'NONE',  ( 2.281418850590172465, 0.7129790216509425127, 2.917921559917155960 ) ) ;
#144 = CARTESIAN_POINT ( 'NONE',  ( 3.103108391141977229, 0.6988642483624973867, 2.917755105396540927 ) ) ;
#145 =( LENGTH_UNIT ( ) NAMED_UNIT ( * ) SI_UNIT ( .MILLI., .METRE. ) );
#146 = CIRCLE ( 'NONE', #267, 3.000000000000000888 ) ;
#147 = VERTEX_POINT ( 'NONE', #228 ) ;
#148 = DIRECTION ( 'NONE',  ( 1.000000000000000000, 0.000000000000000000, 0.000000000000000000 ) ) ;
#149 = DIRECTION ( 'NONE',  ( -1.000000000000000000, -0.000000000000000000, -0.000000000000000000 ) ) ;
#150 = SURFACE_STYLE_USAGE ( .BOTH. , #50 ) ;
#151 = ORIENTED_EDGE ( 'NONE', *, *, #224, .T. ) ;
#152 = ORIENTED_EDGE ( 'NONE', *, *, #41, .T. ) ;
#153 = EDGE_LOOP ( 'NONE', ( #154 ) ) ;
#154 = ORIENTED_EDGE ( 'NONE', *, *, #4, .F. ) ;
#155 = CARTESIAN_POINT ( 'NONE',  ( 19.50000000000000355, 0.000000000000000000, 0.000000000000000000 ) ) ;
#156 =( NAMED_UNIT ( * ) PLANE_ANGLE_UNIT ( ) SI_UNIT ( $, .RADIAN. ) );
#157 = AXIS2_PLACEMENT_3D ( 'NONE', #104, #21, #269 ) ;
#158 = FACE_BOUND ( 'NONE', #109, .T. ) ;
#159 = CARTESIAN_POINT ( 'NONE',  ( 3.499999999999998224, -0.1062192327973421335, 3.000000000000001332 ) ) ;
#160 = FACE_OUTER_BOUND ( 'NONE', #153, .T. ) ;
#161 =( GEOMETRIC_REPRESENTATION_CONTEXT ( 3 ) GLOBAL_UNCERTAINTY_ASSIGNED_CONTEXT ( ( #16 ) ) GLOBAL_UNIT_ASSIGNED_CONTEXT ( ( #145, #202, #249 ) ) REPRESENTATION_CONTEXT ( 'NONE', 'WORKASPACE' ) );
#162 = CARTESIAN_POINT ( 'NONE',  ( 2.488593323249359557, 0.7999039980042521591, 2.891393021344994985 ) ) ;
#163 = DIRECTION ( 'NONE',  ( 0.000000000000000000, 0.000000000000000000, 1.000000000000000000 ) ) ;
#164 = CARTESIAN_POINT ( 'NONE',  ( 0.000000000000000000, 0.000000000000000000, 0.000000000000000000 ) ) ;
#165 = EDGE_CURVE ( 'NONE', #47, #47, #99, .T. ) ;
#166 = FACE_OUTER_BOUND ( 'NONE', #173, .T. ) ;
#167 = PLANE ( 'NONE',  #186 ) ;
#168 = CARTESIAN_POINT ( 'NONE',  ( 0.9999999999999997780, 0.000000000000000000, 0.000000000000000000 ) ) ;
#169 = APPLICATION_PROTOCOL_DEFINITION ( 'draft international standard', 'automotive_design', 1998, #56 ) ;
#170 = CARTESIAN_POINT ( 'NONE',  ( 2.490585074020934542, 0.7792362533643526490, -2.897329895670207378 ) ) ;
#171 = CARTESIAN_POINT ( 'NONE',  ( 3.478916365038730696, 0.2104137889722128840, -2.994192765657750499 ) ) ;
#172 = EDGE_CURVE ( 'NONE', #18, #18, #146, .T. ) ;
#173 = EDGE_LOOP ( 'NONE', ( #151 ) ) ;
#174 = ORIENTED_EDGE ( 'NONE', *, *, #185, .T. ) ;
#175 = PRODUCT ( '76.04.03.0003', '76.04.03.0003', '', ( #52 ) ) ;
#176 = CARTESIAN_POINT ( 'NONE',  ( 3.398427420106508556, 0.4039601529336269148, -2.974269738162408583 ) ) ;
#177 = CARTESIAN_POINT ( 'NONE',  ( 3.398330343627649075, -0.4040150630373650631, -2.974248258878045892 ) ) ;
#178 =( LENGTH_UNIT ( ) NAMED_UNIT ( * ) SI_UNIT ( .MILLI., .METRE. ) );
#179 = FACE_OUTER_BOUND ( 'NONE', #134, .T. ) ;
#180 = FACE_BOUND ( 'NONE', #51, .T. ) ;
#181 = CARTESIAN_POINT ( 'NONE',  ( 3.338764023367694733, 0.4926994419101374811, 2.960206940443519841 ) ) ;
#182 = CARTESIAN_POINT ( 'NONE',  ( 2.805157936786852879, 0.8000478770550074614, 2.891353212061239741 ) ) ;
#183 = PRODUCT_DEFINITION_CONTEXT ( 'detailed design', #56, 'design' ) ;
#184 = CARTESIAN_POINT ( 'NONE',  ( 2.910183360198649982, 0.7789291159944901066, 2.897408415284752792 ) ) ;
#185 = EDGE_CURVE ( 'NONE', #254, #254, #29, .T. ) ;
#186 = AXIS2_PLACEMENT_3D ( 'NONE', #19, #148, #229 ) ;
#187 = CARTESIAN_POINT ( 'NONE',  ( 2.490585074020934542, -0.7792362533643526490, 2.897329895670207378 ) ) ;
#188 = CARTESIAN_POINT ( 'NONE',  ( 18.00000000000000000, 0.000000000000000000, 4.500000000000000888 ) ) ;
#189 = CARTESIAN_POINT ( 'NONE',  ( 2.595636755072557200, 0.8000674022809903807, -2.891347809711299455 ) ) ;
#190 = EDGE_LOOP ( 'NONE', ( #83 ) ) ;
#191 = CARTESIAN_POINT ( 'NONE',  ( 2.805157936786852879, -0.8000478770550074614, -2.891353212061239741 ) ) ;
#192 = CARTESIAN_POINT ( 'NONE',  ( 3.191890983426895811, -0.6393867984489254308, -2.932023600225241555 ) ) ;
#193 = ORIENTED_EDGE ( 'NONE', *, *, #165, .T. ) ;
#194 = MECHANICAL_DESIGN_GEOMETRIC_PRESENTATION_REPRESENTATION (  '', ( #126 ), #161 ) ;
#195 = CARTESIAN_POINT ( 'NONE',  ( 19.50000000000000355, 0.000000000000000000, 0.000000000000000000 ) ) ;
#196 = DIRECTION ( 'NONE',  ( 0.000000000000000000, 0.000000000000000000, 1.000000000000000000 ) ) ;
#197 = SURFACE_STYLE_USAGE ( .BOTH. , #101 ) ;
#198 = CARTESIAN_POINT ( 'NONE',  ( -1.056311621870768530E-16, 2.000000000000002665, 0.000000000000000000 ) ) ;
#199 = CARTESIAN_POINT ( 'NONE',  ( 3.192115471481314248, -0.6392230513409553616, 2.932061079536042669 ) ) ;
#200 = CARTESIAN_POINT ( 'NONE',  ( 2.001027699453194142, 0.4029028924554883817, 2.974401017704042527 ) ) ;
#201 = CARTESIAN_POINT ( 'NONE',  ( 2.296275808525187756, -0.6986204455912670142, 2.917817529576431479 ) ) ;
#202 =( NAMED_UNIT ( * ) PLANE_ANGLE_UNIT ( ) SI_UNIT ( $, .RADIAN. ) );
#203 = FACE_BOUND ( 'NONE', #255, .T. ) ;
#204 = CARTESIAN_POINT ( 'NONE',  ( 3.499999999999998668, 0.1062192327973421890, 3.000000000000000888 ) ) ;
#205 = COLOUR_RGB ( '',0.7764705882352941346, 0.7568627450980391913, 0.7372549019607843590 ) ;
#206 =( NAMED_UNIT ( * ) SI_UNIT ( $, .STERADIAN. ) SOLID_ANGLE_UNIT ( ) );
#207 = CARTESIAN_POINT ( 'NONE',  ( 0.9999999999999997780, 0.000000000000000000, 2.999999999999998668 ) ) ;
#208 = CARTESIAN_POINT ( 'NONE',  ( 3.339006520441565318, 0.4923966018059849348, -2.960259088327510391 ) ) ;
#209 = ADVANCED_FACE ( 'NONE', ( #180, #225 ), #167, .F. ) ;
#210 =( NAMED_UNIT ( * ) PLANE_ANGLE_UNIT ( ) SI_UNIT ( $, .RADIAN. ) );
#211 = EDGE_LOOP ( 'NONE', ( #113 ) ) ;
#212 = ORIENTED_EDGE ( 'NONE', *, *, #172, .T. ) ;
#213 = EDGE_LOOP ( 'NONE', ( #130 ) ) ;
#214 = CARTESIAN_POINT ( 'NONE',  ( 3.499999999999998668, -2.710505431213761085E-17, -3.000000000000000888 ) ) ;
#215 = CIRCLE ( 'NONE', #223, 4.500000000000000888 ) ;
#216 = APPLICATION_CONTEXT ( 'automotive_design' ) ;
#217 = PRODUCT_DEFINITION_SHAPE ( 'NONE', 'NONE',  #37 ) ;
#218 = UNCERTAINTY_MEASURE_WITH_UNIT (LENGTH_MEASURE( 1.000000000000000082E-05 ), #5, 'distance_accuracy_value', 'NONE');
#219 = DIRECTION ( 'NONE',  ( 0.000000000000000000, 0.000000000000000000, 1.000000000000000000 ) ) ;
#220 = DIRECTION ( 'NONE',  ( -1.000000000000000000, -0.000000000000000000, -0.000000000000000000 ) ) ;
#221 = CARTESIAN_POINT ( 'NONE',  ( 3.499999999999998668, -0.1062192327973421890, -3.000000000000000888 ) ) ;
#222 = CARTESIAN_POINT ( 'NONE',  ( 2.910985013279371536, -0.7786701935997513147, 2.897477153669222538 ) ) ;
#223 = AXIS2_PLACEMENT_3D ( 'NONE', #89, #248, #120 ) ;
#224 = EDGE_CURVE ( 'NONE', #128, #128, #55, .T. ) ;
#225 = FACE_OUTER_BOUND ( 'NONE', #96, .T. ) ;
#226 = DIRECTION ( 'NONE',  ( 1.000000000000000000, 0.000000000000000000, 0.000000000000000000 ) ) ;
#227 = MECHANICAL_DESIGN_GEOMETRIC_PRESENTATION_REPRESENTATION (  '', ( #43 ), #49 ) ;
#228 = CARTESIAN_POINT ( 'NONE',  ( 19.50000000000000355, 0.000000000000000000, 4.000000000000001776 ) ) ;
#229 = DIRECTION ( 'NONE',  ( 0.000000000000000000, 0.000000000000000000, -1.000000000000000000 ) ) ;
#230 = CARTESIAN_POINT ( 'NONE',  ( 3.499999999999997335, 0.000000000000000000, 3.000000000000000000 ) ) ;
#231 = CONICAL_SURFACE ( 'NONE', #20, 4.000000000000001776, 0.7853981633974466137 ) ;
#232 = EDGE_LOOP ( 'NONE', ( #152 ) ) ;
#233 = SURFACE_STYLE_FILL_AREA ( #73 ) ;
#234 = ORIENTED_EDGE ( 'NONE', *, *, #136, .T. ) ;
#235 = CARTESIAN_POINT ( 'NONE',  ( 3.499999999999998668, -2.710505431213761085E-17, -3.000000000000000888 ) ) ;
#236 = EDGE_LOOP ( 'NONE', ( #212 ) ) ;
#237 = ORIENTED_EDGE ( 'NONE', *, *, #257, .T. ) ;
#238 = CARTESIAN_POINT ( 'NONE',  ( 19.50000000000000355, 0.000000000000000000, 0.000000000000000000 ) ) ;
#239 = AXIS2_PLACEMENT_3D ( 'NONE', #45, #149, #163 ) ;
#240 = DIRECTION ( 'NONE',  ( 0.000000000000000000, 0.000000000000000000, 1.000000000000000000 ) ) ;
#241 = FILL_AREA_STYLE ('',( #265 ) ) ;
#242 = CARTESIAN_POINT ( 'NONE',  ( 3.478916365038730696, -0.2104137889722128840, 2.994192765657750499 ) ) ;
#243 = DIRECTION ( 'NONE',  ( -0.000000000000000000, -0.000000000000000000, 1.000000000000000000 ) ) ;
#244 = DIRECTION ( 'NONE',  ( 0.000000000000000000, 0.000000000000000000, -1.000000000000000000 ) ) ;
#245 = CARTESIAN_POINT ( 'NONE',  ( 18.00000000000000000, 0.000000000000000000, 3.000000000000000888 ) ) ;
#246 = PRODUCT_RELATED_PRODUCT_CATEGORY ( 'part', '', ( #175 ) ) ;
#247 = CARTESIAN_POINT ( 'NONE',  ( 2.208373063196236163, -0.6397347159768809188, 2.931965138252623948 ) ) ;
#248 = DIRECTION ( 'NONE',  ( -1.000000000000000000, -0.000000000000000000, -0.000000000000000000 ) ) ;
#249 =( NAMED_UNIT ( * ) SI_UNIT ( $, .STERADIAN. ) SOLID_ANGLE_UNIT ( ) );
#250 = DIRECTION ( 'NONE',  ( -1.000000000000000000, -0.000000000000000000, -0.000000000000000000 ) ) ;
#251 = FILL_AREA_STYLE_COLOUR ( '', #205 ) ;
#252 = CARTESIAN_POINT ( 'NONE',  ( 2.060326361021633357, 0.4917064036732171073, -2.960389314151348650 ) ) ;
#253 = COLOUR_RGB ( '',0.7764705882352941346, 0.7568627450980391913, 0.7372549019607843590 ) ;
#254 = VERTEX_POINT ( 'NONE', #207 ) ;
#255 = EDGE_LOOP ( 'NONE', ( #256 ) ) ;
#256 = ORIENTED_EDGE ( 'NONE', *, *, #165, .F. ) ;
#257 = EDGE_CURVE ( 'NONE', #25, #25, #215, .T. ) ;
#258 = CARTESIAN_POINT ( 'NONE',  ( 2.001027699453194142, -0.4029028924554883817, -2.974401017704042527 ) ) ;
#259 = AXIS2_PLACEMENT_3D ( 'NONE', #124, #250, #3 ) ;
#260 = CARTESIAN_POINT ( 'NONE',  ( 2.805394048332756629, 0.7999322656703312662, -2.891385200082222884 ) ) ;
#261 = PRESENTATION_STYLE_ASSIGNMENT (( #197 ) ) ;
#262 = ADVANCED_FACE ( 'NONE', ( #70, #166 ), #69, .T. ) ;
#263 = FACE_BOUND ( 'NONE', #232, .T. ) ;
#264 = FACE_OUTER_BOUND ( 'NONE', #57, .T. ) ;
#265 = FILL_AREA_STYLE_COLOUR ( '', #253 ) ;
#266 = CARTESIAN_POINT ( 'NONE',  ( 3.478610621913210466, 0.2113266179072534334, 2.994114549773281286 ) ) ;
#267 = AXIS2_PLACEMENT_3D ( 'NONE', #22, #67, #106 ) ;
#268 = CARTESIAN_POINT ( 'NONE',  ( 2.060326361021633357, -0.4917064036732171073, 2.960389314151348650 ) ) ;
#269 = DIRECTION ( 'NONE',  ( 0.000000000000000000, 0.000000000000000000, 1.000000000000000000 ) ) ;
#270 = CARTESIAN_POINT ( 'NONE',  ( 3.398330343627649075, 0.4040150630373650631, 2.974248258878045892 ) ) ;
ENDSEC;
END-ISO-10303-21;
