ISO-10303-21;
HEADER;
FILE_DESCRIPTION (( 'STEP AP214' ),
    '1' );
FILE_NAME ('76.04.03.0002.step',
    '2021-04-02T18:00:17',
    ( '' ),
    ( '' ),
    'SwSTEP 2.0',
    'SolidWorks 2021',
    '' );
FILE_SCHEMA (( 'AUTOMOTIVE_DESIGN' ));
ENDSEC;

DATA;
#1 = EDGE_LOOP ( 'NONE', ( #62 ) ) ;
#2 = UNCERTAINTY_MEASURE_WITH_UNIT (LENGTH_MEASURE( 1.000000000000000082E-05 ), #152, 'distance_accuracy_value', 'NONE');
#3 = FACE_OUTER_BOUND ( 'NONE', #105, .T. ) ;
#4 = CARTESIAN_POINT ( 'NONE',  ( 0.000000000000000000, 0.000000000000000000, 0.000000000000000000 ) ) ;
#5 = DIRECTION ( 'NONE',  ( 1.000000000000000000, 0.000000000000000000, 0.000000000000000000 ) ) ;
#6 = CIRCLE ( 'NONE', #53, 1.700000000000001066 ) ;
#7 = ORIENTED_EDGE ( 'NONE', *, *, #71, .T. ) ;
#8 = CARTESIAN_POINT ( 'NONE',  ( 16.50000000000000000, 0.000000000000000000, 0.000000000000000000 ) ) ;
#9 = CARTESIAN_POINT ( 'NONE',  ( 2.253564455545263634, 0.2607125460038317022, -2.488139721847524299 ) ) ;
#10 = AXIS2_PLACEMENT_3D ( 'NONE', #151, #114, #208 ) ;
#11 = SURFACE_STYLE_FILL_AREA ( #88 ) ;
#12 = ADVANCED_FACE ( 'NONE', ( #3, #173 ), #192, .F. ) ;
#13 = DIRECTION ( 'NONE',  ( -1.000000000000000000, -0.000000000000000000, -0.000000000000000000 ) ) ;
#14 = CARTESIAN_POINT ( 'NONE',  ( 2.831095826854612696, -0.4999220490620657764, 2.449505654448818515 ) ) ;
#15 = UNCERTAINTY_MEASURE_WITH_UNIT (LENGTH_MEASURE( 1.000000000000000082E-05 ), #121, 'distance_accuracy_value', 'NONE');
#16 = CARTESIAN_POINT ( 'NONE',  ( 15.00000000000000000, 0.000000000000000000, 2.500000000000000444 ) ) ;
#17 = DIRECTION ( 'NONE',  ( 0.000000000000000000, 0.000000000000000000, 1.000000000000000000 ) ) ;
#18 = CARTESIAN_POINT ( 'NONE',  ( 16.00000000000000000, 0.000000000000000000, 0.000000000000000000 ) ) ;
#19 = CARTESIAN_POINT ( 'NONE',  ( 2.439485991796681130, -0.4465514287584768094, 2.461585287686177459 ) ) ;
#20 = EDGE_LOOP ( 'NONE', ( #211 ) ) ;
#21 = FACE_OUTER_BOUND ( 'NONE', #85, .T. ) ;
#22 = AXIS2_PLACEMENT_3D ( 'NONE', #8, #30, #157 ) ;
#23 = EDGE_LOOP ( 'NONE', ( #7 ) ) ;
#24 = ORIENTED_EDGE ( 'NONE', *, *, #229, .F. ) ;
#25 = EDGE_LOOP ( 'NONE', ( #102 ) ) ;
#26 = ADVANCED_FACE ( 'NONE', ( #131, #226 ), #80, .F. ) ;
#27 = DIRECTION ( 'NONE',  ( -1.000000000000000000, 0.000000000000000000, -0.000000000000000000 ) ) ;
#28 = FACE_BOUND ( 'NONE', #1, .T. ) ;
#29 = CARTESIAN_POINT ( 'NONE',  ( 2.438242713232575909, -0.4455090026928817948, -2.461748858918427540 ) ) ;
#30 = DIRECTION ( 'NONE',  ( -1.000000000000000000, -0.000000000000000000, -0.000000000000000000 ) ) ;
#31 = CARTESIAN_POINT ( 'NONE',  ( 2.254037979103589162, -0.2609847209593670336, -2.488086150295514720 ) ) ;
#32 = DIRECTION ( 'NONE',  ( -1.000000000000000000, -0.000000000000000000, -0.000000000000000000 ) ) ;
#33 = DIRECTION ( 'NONE',  ( 0.000000000000000000, 0.000000000000000000, 1.000000000000000000 ) ) ;
#34 = CARTESIAN_POINT ( 'NONE',  ( 2.200053002966560811, -0.1308991009393400684, 2.499989399407521962 ) ) ;
#35 =( LENGTH_UNIT ( ) NAMED_UNIT ( * ) SI_UNIT ( .MILLI., .METRE. ) );
#36 =( NAMED_UNIT ( * ) SI_UNIT ( $, .STERADIAN. ) SOLID_ANGLE_UNIT ( ) );
#37 = STYLED_ITEM ( 'NONE', ( #177 ), #90 ) ;
#38 = PRODUCT_DEFINITION_CONTEXT ( 'detailed design', #133, 'design' ) ;
#39 = SURFACE_STYLE_USAGE ( .BOTH. , #220 ) ;
#40 = DIRECTION ( 'NONE',  ( 0.000000000000000000, 0.000000000000000000, -1.000000000000000000 ) ) ;
#41 = ADVANCED_FACE ( 'NONE', ( #21, #170 ), #153, .T. ) ;
#42 = ORIENTED_EDGE ( 'NONE', *, *, #96, .F. ) ;
#43 = CONICAL_SURFACE ( 'NONE', #97, 3.499999999999999556, 0.7853981633974482790 ) ;
#44 = FACE_OUTER_BOUND ( 'NONE', #185, .T. ) ;
#45 = EDGE_LOOP ( 'NONE', ( #175 ) ) ;
#46 = PRODUCT ( '76.04.03.0002', '76.04.03.0002', '', ( #149 ) ) ;
#47 = EDGE_LOOP ( 'NONE', ( #232 ) ) ;
#48 = COLOUR_RGB ( '',0.7764705882352941346, 0.7568627450980391913, 0.7372549019607843590 ) ;
#49 = FACE_OUTER_BOUND ( 'NONE', #47, .T. ) ;
#50 = SURFACE_STYLE_USAGE ( .BOTH. , #178 ) ;
#51 = EDGE_CURVE ( 'NONE', #58, #58, #6, .T. ) ;
#52 = CARTESIAN_POINT ( 'NONE',  ( 3.145504019641935933, 0.2616304439484700151, -2.488007600895258076 ) ) ;
#53 = AXIS2_PLACEMENT_3D ( 'NONE', #4, #132, #154 ) ;
#54 = FACE_OUTER_BOUND ( 'NONE', #118, .T. ) ;
#55 = APPLICATION_PROTOCOL_DEFINITION ( 'draft international standard', 'automotive_design', 1998, #133 ) ;
#56 = CARTESIAN_POINT ( 'NONE',  ( 2.961496328499957809, -0.4455827542655097506, 2.461724663810803460 ) ) ;
#57 = MECHANICAL_DESIGN_GEOMETRIC_PRESENTATION_REPRESENTATION (  '', ( #37 ), #84 ) ;
#58 = VERTEX_POINT ( 'NONE', #112 ) ;
#59 = CARTESIAN_POINT ( 'NONE',  ( 3.145504019641935933, -0.2616304439484700151, 2.488007600895258076 ) ) ;
#60 = VERTEX_POINT ( 'NONE', #75 ) ;
#61 = ADVANCED_FACE ( 'NONE', ( #210, #44 ), #169, .T. ) ;
#62 = ORIENTED_EDGE ( 'NONE', *, *, #214, .T. ) ;
#63 = EDGE_LOOP ( 'NONE', ( #135 ) ) ;
#64 =( GEOMETRIC_REPRESENTATION_CONTEXT ( 3 ) GLOBAL_UNCERTAINTY_ASSIGNED_CONTEXT ( ( #167 ) ) GLOBAL_UNIT_ASSIGNED_CONTEXT ( ( #35, #98, #36 ) ) REPRESENTATION_CONTEXT ( 'NONE', 'WORKASPACE' ) );
#65 = DIRECTION ( 'NONE',  ( -1.000000000000000000, -0.000000000000000000, -0.000000000000000000 ) ) ;
#66 = ORIENTED_EDGE ( 'NONE', *, *, #87, .T. ) ;
#67 = DIRECTION ( 'NONE',  ( 0.000000000000000000, 0.000000000000000000, 1.000000000000000000 ) ) ;
#68 = AXIS2_PLACEMENT_3D ( 'NONE', #103, #82, #155 ) ;
#69 = DIRECTION ( 'NONE',  ( 0.000000000000000000, 0.000000000000000000, 1.000000000000000000 ) ) ;
#70 = AXIS2_PLACEMENT_3D ( 'NONE', #108, #222, #17 ) ;
#71 = EDGE_CURVE ( 'NONE', #203, #203, #128, .T. ) ;
#72 = PLANE ( 'NONE',  #174 ) ;
#73 = SURFACE_STYLE_FILL_AREA ( #162 ) ;
#74 = CARTESIAN_POINT ( 'NONE',  ( 3.199999999999999734, 1.355252715606880543E-17, 2.500000000000000000 ) ) ;
#75 = CARTESIAN_POINT ( 'NONE',  ( 3.199999999999999289, 0.000000000000000000, 2.499999999999999556 ) ) ;
#76 = CARTESIAN_POINT ( 'NONE',  ( 0.7999999999999998224, 0.000000000000000000, 2.499999999999998224 ) ) ;
#77 = APPLICATION_PROTOCOL_DEFINITION ( 'draft international standard', 'automotive_design', 1998, #238 ) ;
#78 = CIRCLE ( 'NONE', #124, 2.499999999999998224 ) ;
#79 = ORIENTED_EDGE ( 'NONE', *, *, #96, .T. ) ;
#80 = PLANE ( 'NONE',  #237 ) ;
#81 = SHAPE_DEFINITION_REPRESENTATION ( #221, #139 ) ;
#82 = DIRECTION ( 'NONE',  ( 1.000000000000000000, 0.000000000000000000, 0.000000000000000000 ) ) ;
#83 =( GEOMETRIC_REPRESENTATION_CONTEXT ( 3 ) GLOBAL_UNCERTAINTY_ASSIGNED_CONTEXT ( ( #2 ) ) GLOBAL_UNIT_ASSIGNED_CONTEXT ( ( #152, #172, #187 ) ) REPRESENTATION_CONTEXT ( 'NONE', 'WORKASPACE' ) );
#84 =( GEOMETRIC_REPRESENTATION_CONTEXT ( 3 ) GLOBAL_UNCERTAINTY_ASSIGNED_CONTEXT ( ( #15 ) ) GLOBAL_UNIT_ASSIGNED_CONTEXT ( ( #121, #160, #138 ) ) REPRESENTATION_CONTEXT ( 'NONE', 'WORKASPACE' ) );
#85 = EDGE_LOOP ( 'NONE', ( #193 ) ) ;
#86 = CARTESIAN_POINT ( 'NONE',  ( 2.831095826854612696, 0.4999220490620657764, -2.449505654448818515 ) ) ;
#87 = EDGE_CURVE ( 'NONE', #113, #113, #78, .T. ) ;
#88 = FILL_AREA_STYLE ('',( #91 ) ) ;
#89 = CARTESIAN_POINT ( 'NONE',  ( 2.439485991796681130, 0.4465514287584768094, -2.461585287686177459 ) ) ;
#90 = MANIFOLD_SOLID_BREP ( 'Cut-Extrude1', #111 ) ;
#91 = FILL_AREA_STYLE_COLOUR ( '', #48 ) ;
#92 = AXIS2_PLACEMENT_3D ( 'NONE', #18, #32, #99 ) ;
#93 = CARTESIAN_POINT ( 'NONE',  ( 2.254037979103589162, 0.2609847209593670336, 2.488086150295514720 ) ) ;
#94 = B_SPLINE_CURVE_WITH_KNOTS ( 'NONE', 3,
 ( #74, #127, #59, #56, #14, #239, #19, #146, #34, #144, #93, #201, #240, #123, #183, #242, #225, #202 ),
 .UNSPECIFIED., .T., .F.,
 ( 4, 2, 2, 2, 2, 2, 2, 2, 4 ),
 ( 0.000000000000000000, 0.0003917458393949296326, 0.0007834916787898592652, 0.001175237518184788898, 0.001566983357579718530, 0.001958729196974648163, 0.002350475036369577796, 0.002742220875764507428, 0.003133966715159437061 ),
 .UNSPECIFIED. ) ;
#95 = CARTESIAN_POINT ( 'NONE',  ( 16.50000000000000000, 0.000000000000000000, 3.499999999999999556 ) ) ;
#96 = EDGE_CURVE ( 'NONE', #184, #184, #234, .T. ) ;
#97 = AXIS2_PLACEMENT_3D ( 'NONE', #219, #159, #69 ) ;
#98 =( NAMED_UNIT ( * ) PLANE_ANGLE_UNIT ( ) SI_UNIT ( $, .RADIAN. ) );
#99 = DIRECTION ( 'NONE',  ( 0.000000000000000000, 0.000000000000000000, 1.000000000000000000 ) ) ;
#100 = EDGE_LOOP ( 'NONE', ( #24 ) ) ;
#101 = EDGE_LOOP ( 'NONE', ( #206 ) ) ;
#102 = ORIENTED_EDGE ( 'NONE', *, *, #51, .T. ) ;
#103 = CARTESIAN_POINT ( 'NONE',  ( 0.7999999999999998224, 0.000000000000000000, 0.000000000000000000 ) ) ;
#104 = ADVANCED_FACE ( 'NONE', ( #54 ), #72, .F. ) ;
#105 = EDGE_LOOP ( 'NONE', ( #227 ) ) ;
#106 = FACE_OUTER_BOUND ( 'NONE', #100, .T. ) ;
#107 = PRODUCT_RELATED_PRODUCT_CATEGORY ( 'part', '', ( #46 ) ) ;
#108 = CARTESIAN_POINT ( 'NONE',  ( 0.000000000000000000, 0.000000000000000000, 0.000000000000000000 ) ) ;
#109 = CARTESIAN_POINT ( 'NONE',  ( 3.199999999999999734, -1.355252715606880543E-17, -2.500000000000000000 ) ) ;
#110 = CARTESIAN_POINT ( 'NONE',  ( 2.961496328499957809, 0.4455827542655097506, -2.461724663810803460 ) ) ;
#111 = CLOSED_SHELL ( 'NONE', ( #104, #166, #41, #26, #200, #61, #145, #12 ) ) ;
#112 = CARTESIAN_POINT ( 'NONE',  ( 0.000000000000000000, 0.000000000000000000, 1.700000000000001066 ) ) ;
#113 = VERTEX_POINT ( 'NONE', #76 ) ;
#114 = DIRECTION ( 'NONE',  ( -0.000000000000000000, -0.000000000000000000, 1.000000000000000000 ) ) ;
#115 = CIRCLE ( 'NONE', #92, 4.000000000000000000 ) ;
#116 = CARTESIAN_POINT ( 'NONE',  ( 15.00000000000000000, 4.000000000000000000, 0.000000000000000000 ) ) ;
#117 = CARTESIAN_POINT ( 'NONE',  ( 0.000000000000000000, 0.000000000000000000, 0.000000000000000000 ) ) ;
#118 = EDGE_LOOP ( 'NONE', ( #42 ) ) ;
#119 = CARTESIAN_POINT ( 'NONE',  ( 3.145277868219310768, -0.2619658156351857281, -2.487967640821406867 ) ) ;
#120 = DIRECTION ( 'NONE',  ( -0.000000000000000000, 0.000000000000000000, 1.000000000000000000 ) ) ;
#121 =( LENGTH_UNIT ( ) NAMED_UNIT ( * ) SI_UNIT ( .MILLI., .METRE. ) );
#122 = MECHANICAL_DESIGN_GEOMETRIC_PRESENTATION_REPRESENTATION (  '', ( #198 ), #83 ) ;
#123 = CARTESIAN_POINT ( 'NONE',  ( 2.831713795300136116, 0.5000930959761533678, 2.449470739651555817 ) ) ;
#124 = AXIS2_PLACEMENT_3D ( 'NONE', #176, #13, #67 ) ;
#125 = CARTESIAN_POINT ( 'NONE',  ( 15.00000000000000000, 0.000000000000000000, 0.000000000000000000 ) ) ;
#126 = CARTESIAN_POINT ( 'NONE',  ( 16.00000000000000000, 0.000000000000000000, 4.000000000000000000 ) ) ;
#127 = CARTESIAN_POINT ( 'NONE',  ( 3.199999999999998845, -0.1324873057991781122, 2.499999999999999112 ) ) ;
#128 = CIRCLE ( 'NONE', #142, 4.000000000000000000 ) ;
#129 = PRESENTATION_STYLE_ASSIGNMENT (( #39 ) ) ;
#130 = EDGE_LOOP ( 'NONE', ( #79 ) ) ;
#131 = FACE_BOUND ( 'NONE', #101, .T. ) ;
#132 = DIRECTION ( 'NONE',  ( -1.000000000000000000, -0.000000000000000000, -0.000000000000000000 ) ) ;
#133 = APPLICATION_CONTEXT ( 'automotive_design' ) ;
#134 = EDGE_LOOP ( 'NONE', ( #212 ) ) ;
#135 = ORIENTED_EDGE ( 'NONE', *, *, #214, .F. ) ;
#136 = FACE_OUTER_BOUND ( 'NONE', #188, .T. ) ;
#137 = AXIS2_PLACEMENT_3D ( 'NONE', #228, #191, #171 ) ;
#138 =( NAMED_UNIT ( * ) SI_UNIT ( $, .STERADIAN. ) SOLID_ANGLE_UNIT ( ) );
#139 = ADVANCED_BREP_SHAPE_REPRESENTATION ( '76.04.03.0002', ( #90, #150 ), #64 ) ;
#140 = DIRECTION ( 'NONE',  ( 0.000000000000000000, 0.000000000000000000, 1.000000000000000000 ) ) ;
#141 = CARTESIAN_POINT ( 'NONE',  ( 3.199999999999999734, -1.355252715606880543E-17, -2.500000000000000000 ) ) ;
#142 = AXIS2_PLACEMENT_3D ( 'NONE', #231, #65, #140 ) ;
#143 = DIRECTION ( 'NONE',  ( 0.000000000000000000, 0.000000000000000000, -1.000000000000000000 ) ) ;
#144 = CARTESIAN_POINT ( 'NONE',  ( 2.199947079138411699, 0.1304938726809627414, 2.500010584171482364 ) ) ;
#145 = ADVANCED_FACE ( 'NONE', ( #235 ), #197, .F. ) ;
#146 = CARTESIAN_POINT ( 'NONE',  ( 2.253564455545263634, -0.2607125460038317022, 2.488139721847524299 ) ) ;
#147 = PRESENTATION_LAYER_ASSIGNMENT (  '', '', ( #37 ) ) ;
#148 = VERTEX_POINT ( 'NONE', #126 ) ;
#149 = PRODUCT_CONTEXT ( 'NONE', #238, 'mechanical' ) ;
#150 = AXIS2_PLACEMENT_3D ( 'NONE', #117, #207, #189 ) ;
#151 = CARTESIAN_POINT ( 'NONE',  ( 2.699999999999999289, -2.407412430484044816E-32, -4.000000000000000000 ) ) ;
#152 =( LENGTH_UNIT ( ) NAMED_UNIT ( * ) SI_UNIT ( .MILLI., .METRE. ) );
#153 = CYLINDRICAL_SURFACE ( 'NONE', #137, 4.000000000000000000 ) ;
#154 = DIRECTION ( 'NONE',  ( 0.000000000000000000, 0.000000000000000000, 1.000000000000000000 ) ) ;
#155 = DIRECTION ( 'NONE',  ( 0.000000000000000000, 0.000000000000000000, -1.000000000000000000 ) ) ;
#156 = CARTESIAN_POINT ( 'NONE',  ( 2.199947079138411699, -0.1304938726809627414, -2.500010584171482364 ) ) ;
#157 = DIRECTION ( 'NONE',  ( 0.000000000000000000, 0.000000000000000000, 1.000000000000000000 ) ) ;
#158 = FACE_BOUND ( 'NONE', #20, .T. ) ;
#159 = DIRECTION ( 'NONE',  ( -1.000000000000000000, -0.000000000000000000, -0.000000000000000000 ) ) ;
#160 =( NAMED_UNIT ( * ) PLANE_ANGLE_UNIT ( ) SI_UNIT ( $, .RADIAN. ) );
#161 = AXIS2_PLACEMENT_3D ( 'NONE', #236, #196, #143 ) ;
#162 = FILL_AREA_STYLE ('',( #181 ) ) ;
#163 = CARTESIAN_POINT ( 'NONE',  ( 3.199999999999999289, -2.407412430484044816E-32, -2.499999999999999556 ) ) ;
#164 = CARTESIAN_POINT ( 'NONE',  ( 15.00000000000000000, 0.000000000000000000, 4.000000000000000000 ) ) ;
#165 = VERTEX_POINT ( 'NONE', #16 ) ;
#166 = ADVANCED_FACE ( 'NONE', ( #106, #216 ), #43, .T. ) ;
#167 = UNCERTAINTY_MEASURE_WITH_UNIT (LENGTH_MEASURE( 1.000000000000000082E-05 ), #35, 'distance_accuracy_value', 'NONE');
#168 = ORIENTED_EDGE ( 'NONE', *, *, #87, .F. ) ;
#169 = CONICAL_SURFACE ( 'NONE', #68, 2.499999999999998224, 0.7853981633974467247 ) ;
#170 = FACE_OUTER_BOUND ( 'NONE', #45, .T. ) ;
#171 = DIRECTION ( 'NONE',  ( 0.000000000000000000, 0.000000000000000000, 1.000000000000000000 ) ) ;
#172 =( NAMED_UNIT ( * ) PLANE_ANGLE_UNIT ( ) SI_UNIT ( $, .RADIAN. ) );
#173 = FACE_OUTER_BOUND ( 'NONE', #63, .T. ) ;
#174 = AXIS2_PLACEMENT_3D ( 'NONE', #213, #27, #120 ) ;
#175 = ORIENTED_EDGE ( 'NONE', *, *, #229, .T. ) ;
#176 = CARTESIAN_POINT ( 'NONE',  ( 0.7999999999999998224, 0.000000000000000000, 0.000000000000000000 ) ) ;
#177 = PRESENTATION_STYLE_ASSIGNMENT (( #50 ) ) ;
#178 = SURFACE_SIDE_STYLE ('',( #11 ) ) ;
#179 = CARTESIAN_POINT ( 'NONE',  ( 2.200053002966560811, 0.1308991009393400684, -2.499989399407521962 ) ) ;
#180 = CARTESIAN_POINT ( 'NONE',  ( 2.567580345503921890, -0.4999066549052132435, -2.449508796765922813 ) ) ;
#181 = FILL_AREA_STYLE_COLOUR ( '', #209 ) ;
#182 = PRODUCT_DEFINITION_FORMATION_WITH_SPECIFIED_SOURCE ( 'ANY', '', #46, .NOT_KNOWN. ) ;
#183 = CARTESIAN_POINT ( 'NONE',  ( 2.961301387455566925, 0.4456680978050124864, 2.461704494234577378 ) ) ;
#184 = VERTEX_POINT ( 'NONE', #95 ) ;
#185 = EDGE_LOOP ( 'NONE', ( #66 ) ) ;
#186 = EDGE_CURVE ( 'NONE', #241, #241, #190, .T. ) ;
#187 =( NAMED_UNIT ( * ) SI_UNIT ( $, .STERADIAN. ) SOLID_ANGLE_UNIT ( ) );
#188 = EDGE_LOOP ( 'NONE', ( #168 ) ) ;
#189 = DIRECTION ( 'NONE',  ( 1.000000000000000000, 0.000000000000000000, 0.000000000000000000 ) ) ;
#190 = B_SPLINE_CURVE_WITH_KNOTS ( 'NONE', 3,
 ( #141, #199, #52, #110, #86, #217, #89, #9, #179, #156, #31, #29, #180, #233, #215, #119, #194, #109 ),
 .UNSPECIFIED., .T., .F.,
 ( 4, 2, 2, 2, 2, 2, 2, 2, 4 ),
 ( 0.000000000000000000, 0.0003917458393949296326, 0.0007834916787898592652, 0.001175237518184788898, 0.001566983357579718530, 0.001958729196974648163, 0.002350475036369577796, 0.002742220875764507428, 0.003133966715159437061 ),
 .UNSPECIFIED. ) ;
#191 = DIRECTION ( 'NONE',  ( -1.000000000000000000, -0.000000000000000000, -0.000000000000000000 ) ) ;
#192 = CYLINDRICAL_SURFACE ( 'NONE', #10, 0.5000000000000000000 ) ;
#193 = ORIENTED_EDGE ( 'NONE', *, *, #71, .F. ) ;
#194 = CARTESIAN_POINT ( 'NONE',  ( 3.200000000000000622, -0.1324873057991781400, -2.500000000000000888 ) ) ;
#195 = CYLINDRICAL_SURFACE ( 'NONE', #70, 2.499999999999999556 ) ;
#196 = DIRECTION ( 'NONE',  ( 1.000000000000000000, 0.000000000000000000, 0.000000000000000000 ) ) ;
#197 = PLANE ( 'NONE',  #161 ) ;
#198 = STYLED_ITEM ( 'NONE', ( #129 ), #139 ) ;
#199 = CARTESIAN_POINT ( 'NONE',  ( 3.199999999999998845, 0.1324873057991781122, -2.499999999999999112 ) ) ;
#200 = ADVANCED_FACE ( 'NONE', ( #28, #158, #136, #49 ), #195, .T. ) ;
#201 = CARTESIAN_POINT ( 'NONE',  ( 2.438242713232575909, 0.4455090026928817948, 2.461748858918427540 ) ) ;
#202 = CARTESIAN_POINT ( 'NONE',  ( 3.199999999999999734, 1.355252715606880543E-17, 2.500000000000000000 ) ) ;
#203 = VERTEX_POINT ( 'NONE', #164 ) ;
#204 = CIRCLE ( 'NONE', #223, 2.500000000000000444 ) ;
#205 = EDGE_CURVE ( 'NONE', #165, #165, #204, .T. ) ;
#206 = ORIENTED_EDGE ( 'NONE', *, *, #205, .F. ) ;
#207 = DIRECTION ( 'NONE',  ( 0.000000000000000000, 0.000000000000000000, 1.000000000000000000 ) ) ;
#208 = DIRECTION ( 'NONE',  ( 1.000000000000000000, 0.000000000000000000, 0.000000000000000000 ) ) ;
#209 = COLOUR_RGB ( '',0.7764705882352941346, 0.7568627450980391913, 0.7372549019607843590 ) ;
#210 = FACE_BOUND ( 'NONE', #134, .T. ) ;
#211 = ORIENTED_EDGE ( 'NONE', *, *, #186, .T. ) ;
#212 = ORIENTED_EDGE ( 'NONE', *, *, #51, .F. ) ;
#213 = CARTESIAN_POINT ( 'NONE',  ( 16.50000000000000000, 0.000000000000000000, 0.000000000000000000 ) ) ;
#214 = EDGE_CURVE ( 'NONE', #60, #60, #94, .T. ) ;
#215 = CARTESIAN_POINT ( 'NONE',  ( 2.961301387455566925, -0.4456680978050124864, -2.461704494234577378 ) ) ;
#216 = FACE_BOUND ( 'NONE', #130, .T. ) ;
#217 = CARTESIAN_POINT ( 'NONE',  ( 2.569499459184383383, 0.5000777737551841406, -2.449473867284810868 ) ) ;
#218 = PRODUCT_DEFINITION ( 'UNKNOWN', '', #182, #38 ) ;
#219 = CARTESIAN_POINT ( 'NONE',  ( 16.50000000000000000, 0.000000000000000000, 0.000000000000000000 ) ) ;
#220 = SURFACE_SIDE_STYLE ('',( #73 ) ) ;
#221 = PRODUCT_DEFINITION_SHAPE ( 'NONE', 'NONE',  #218 ) ;
#222 = DIRECTION ( 'NONE',  ( -1.000000000000000000, -0.000000000000000000, -0.000000000000000000 ) ) ;
#223 = AXIS2_PLACEMENT_3D ( 'NONE', #125, #224, #33 ) ;
#224 = DIRECTION ( 'NONE',  ( -1.000000000000000000, -0.000000000000000000, -0.000000000000000000 ) ) ;
#225 = CARTESIAN_POINT ( 'NONE',  ( 3.200000000000000622, 0.1324873057991781400, 2.500000000000000888 ) ) ;
#226 = FACE_OUTER_BOUND ( 'NONE', #23, .T. ) ;
#227 = ORIENTED_EDGE ( 'NONE', *, *, #186, .F. ) ;
#228 = CARTESIAN_POINT ( 'NONE',  ( 0.000000000000000000, 0.000000000000000000, 0.000000000000000000 ) ) ;
#229 = EDGE_CURVE ( 'NONE', #148, #148, #115, .T. ) ;
#230 = PRESENTATION_LAYER_ASSIGNMENT (  '', '', ( #198 ) ) ;
#231 = CARTESIAN_POINT ( 'NONE',  ( 15.00000000000000000, 0.000000000000000000, 0.000000000000000000 ) ) ;
#232 = ORIENTED_EDGE ( 'NONE', *, *, #205, .T. ) ;
#233 = CARTESIAN_POINT ( 'NONE',  ( 2.831713795300136116, -0.5000930959761533678, -2.449470739651555817 ) ) ;
#234 = CIRCLE ( 'NONE', #22, 3.499999999999999556 ) ;
#235 = FACE_OUTER_BOUND ( 'NONE', #25, .T. ) ;
#236 = CARTESIAN_POINT ( 'NONE',  ( 0.000000000000000000, 1.700000000000001066, 0.000000000000000000 ) ) ;
#237 = AXIS2_PLACEMENT_3D ( 'NONE', #116, #5, #40 ) ;
#238 = APPLICATION_CONTEXT ( 'automotive_design' ) ;
#239 = CARTESIAN_POINT ( 'NONE',  ( 2.569499459184383383, -0.5000777737551841406, 2.449473867284810868 ) ) ;
#240 = CARTESIAN_POINT ( 'NONE',  ( 2.567580345503921890, 0.4999066549052132435, 2.449508796765922813 ) ) ;
#241 = VERTEX_POINT ( 'NONE', #163 ) ;
#242 = CARTESIAN_POINT ( 'NONE',  ( 3.145277868219310768, 0.2619658156351857281, 2.487967640821406867 ) ) ;
ENDSEC;
END-ISO-10303-21;
