ISO-10303-21;
HEADER;
FILE_DESCRIPTION (( 'STEP AP214' ),
    '1' );
FILE_NAME ('76.04.02.0007.step',
    '2021-04-02T18:00:11',
    ( '' ),
    ( '' ),
    'SwSTEP 2.0',
    'SolidWorks 2021',
    '' );
FILE_SCHEMA (( 'AUTOMOTIVE_DESIGN' ));
ENDSEC;

DATA;
#1 =( GEOMETRIC_REPRESENTATION_CONTEXT ( 3 ) GLOBAL_UNCERTAINTY_ASSIGNED_CONTEXT ( ( #22 ) ) GLOBAL_UNIT_ASSIGNED_CONTEXT ( ( #39, #99, #186 ) ) REPRESENTATION_CONTEXT ( 'NONE', 'WORKASPACE' ) );
#2 = EDGE_LOOP ( 'NONE', ( #23 ) ) ;
#3 = CARTESIAN_POINT ( 'NONE',  ( 5.499888525698342079, 0.2610426872097859063, 7.000031849797815120 ) ) ;
#4 = DIRECTION ( 'NONE',  ( 0.000000000000000000, 0.000000000000000000, 1.000000000000000000 ) ) ;
#5 =( NAMED_UNIT ( * ) PLANE_ANGLE_UNIT ( ) SI_UNIT ( $, .RADIAN. ) );
#6 =( LENGTH_UNIT ( ) NAMED_UNIT ( * ) SI_UNIT ( .MILLI., .METRE. ) );
#7 = FACE_OUTER_BOUND ( 'NONE', #144, .T. ) ;
#8 =( NAMED_UNIT ( * ) SI_UNIT ( $, .STERADIAN. ) SOLID_ANGLE_UNIT ( ) );
#9 = CARTESIAN_POINT ( 'NONE',  ( 43.00000000000000000, 0.000000000000000000, 0.000000000000000000 ) ) ;
#10 = VERTEX_POINT ( 'NONE', #280 ) ;
#11 = CARTESIAN_POINT ( 'NONE',  ( 8.508453078299064387, 1.746645116476648552, -6.779378394943107011 ) ) ;
#12 = DIRECTION ( 'NONE',  ( -1.000000000000000000, -0.000000000000000000, -0.000000000000000000 ) ) ;
#13 = FACE_BOUND ( 'NONE', #97, .T. ) ;
#14 = ADVANCED_BREP_SHAPE_REPRESENTATION ( '76.04.02.0007', ( #115, #29 ), #295 ) ;
#15 =( NAMED_UNIT ( * ) SI_UNIT ( $, .STERADIAN. ) SOLID_ANGLE_UNIT ( ) );
#16 = AXIS2_PLACEMENT_3D ( 'NONE', #158, #138, #114 ) ;
#17 = CARTESIAN_POINT ( 'NONE',  ( 9.500000000000001776, 0.000000000000000000, 7.000000000000000888 ) ) ;
#18 = EDGE_CURVE ( 'NONE', #44, #44, #220, .T. ) ;
#19 = CARTESIAN_POINT ( 'NONE',  ( 8.508453078299064387, -1.746645116476648552, 6.779378394943107011 ) ) ;
#20 = CARTESIAN_POINT ( 'NONE',  ( 5.910529672231294995, -1.220891589701988744, -6.893581199168648865 ) ) ;
#21 = ORIENTED_EDGE ( 'NONE', *, *, #79, .F. ) ;
#22 = UNCERTAINTY_MEASURE_WITH_UNIT (LENGTH_MEASURE( 1.000000000000000082E-05 ), #39, 'distance_accuracy_value', 'NONE');
#23 = ORIENTED_EDGE ( 'NONE', *, *, #18, .F. ) ;
#24 = CARTESIAN_POINT ( 'NONE',  ( 5.513209139039284779, 0.2645355679088474132, -6.996193262561372528 ) ) ;
#25 = CARTESIAN_POINT ( 'NONE',  ( 5.564998853760701358, -0.5225777989337824225, 6.981662529645753956 ) ) ;
#26 = PRODUCT_DEFINITION_CONTEXT ( 'detailed design', #165, 'design' ) ;
#27 = APPLICATION_CONTEXT ( 'automotive_design' ) ;
#28 = ORIENTED_EDGE ( 'NONE', *, *, #163, .T. ) ;
#29 = AXIS2_PLACEMENT_3D ( 'NONE', #51, #244, #102 ) ;
#30 = PRODUCT_DEFINITION ( 'UNKNOWN', '', #76, #26 ) ;
#31 = CYLINDRICAL_SURFACE ( 'NONE', #150, 2.000000000000000000 ) ;
#32 = CARTESIAN_POINT ( 'NONE',  ( 9.500000000000001776, -1.626303258728256651E-16, 7.000000000000000000 ) ) ;
#33 = FILL_AREA_STYLE ('',( #178 ) ) ;
#34 = CARTESIAN_POINT ( 'NONE',  ( 5.500056009797519074, -0.1318003588677941484, 6.999983997202043007 ) ) ;
#35 = CARTESIAN_POINT ( 'NONE',  ( 9.500000000000000000, 0.1328729097219921995, -6.999999999999999112 ) ) ;
#36 = CARTESIAN_POINT ( 'NONE',  ( 7.632522109029011403, 1.999913025515744236, -6.708229863274453919 ) ) ;
#37 = FACE_BOUND ( 'NONE', #258, .T. ) ;
#38 = DIRECTION ( 'NONE',  ( -1.000000000000000000, -0.000000000000000000, -0.000000000000000000 ) ) ;
#39 =( LENGTH_UNIT ( ) NAMED_UNIT ( * ) SI_UNIT ( .MILLI., .METRE. ) );
#40 = FACE_OUTER_BOUND ( 'NONE', #194, .T. ) ;
#41 = ADVANCED_FACE ( 'NONE', ( #7, #133 ), #31, .F. ) ;
#42 = CARTESIAN_POINT ( 'NONE',  ( 7.761421847467224744, -1.987180762732975614, -6.712065564793263661 ) ) ;
#43 = CARTESIAN_POINT ( 'NONE',  ( 9.296213096854549107, -0.8892579790429944175, 6.944352187521592334 ) ) ;
#44 = VERTEX_POINT ( 'NONE', #17 ) ;
#45 = CARTESIAN_POINT ( 'NONE',  ( 5.500056009797519074, 0.1318003588677941484, -6.999983997202043007 ) ) ;
#46 = EDGE_LOOP ( 'NONE', ( #168 ) ) ;
#47 = CARTESIAN_POINT ( 'NONE',  ( 6.854710131316717359, 1.897605775779491744, -6.738087761030704392 ) ) ;
#48 = CARTESIAN_POINT ( 'NONE',  ( 9.234723709089168509, -1.003872331890494740, 6.928513884018093094 ) ) ;
#49 = CARTESIAN_POINT ( 'NONE',  ( 9.005165782867898372, -1.323364765228637552, -6.874406388487427577 ) ) ;
#50 = ORIENTED_EDGE ( 'NONE', *, *, #54, .F. ) ;
#51 = CARTESIAN_POINT ( 'NONE',  ( 0.000000000000000000, 0.000000000000000000, 0.000000000000000000 ) ) ;
#52 = CARTESIAN_POINT ( 'NONE',  ( 6.853337219325693397, -1.897174229582900162, -6.738211824498034019 ) ) ;
#53 = EDGE_LOOP ( 'NONE', ( #21 ) ) ;
#54 = EDGE_CURVE ( 'NONE', #89, #89, #141, .T. ) ;
#55 = CARTESIAN_POINT ( 'NONE',  ( 9.005165782867898372, 1.323364765228637552, 6.874406388487427577 ) ) ;
#56 = CARTESIAN_POINT ( 'NONE',  ( 9.295896173694821130, 0.8898348396013819883, 6.944270883158618624 ) ) ;
#57 = DIRECTION ( 'NONE',  ( -1.000000000000000000, -0.000000000000000000, -0.000000000000000000 ) ) ;
#58 = CARTESIAN_POINT ( 'NONE',  ( 9.486885886765724862, 0.2636606085587738790, 6.996220727038680032 ) ) ;
#59 = CARTESIAN_POINT ( 'NONE',  ( -4.009977045591169573E-16, 0.000000000000000000, 5.500000000000005329 ) ) ;
#60 = PRESENTATION_STYLE_ASSIGNMENT (( #109 ) ) ;
#61 = VERTEX_POINT ( 'NONE', #91 ) ;
#62 = DIRECTION ( 'NONE',  ( -1.000000000000000000, -0.000000000000000000, -0.000000000000000000 ) ) ;
#63 = FACE_BOUND ( 'NONE', #164, .T. ) ;
#64 = PLANE ( 'NONE',  #16 ) ;
#65 = CIRCLE ( 'NONE', #177, 8.000000000000007105 ) ;
#66 = AXIS2_PLACEMENT_3D ( 'NONE', #230, #140, #113 ) ;
#67 = CARTESIAN_POINT ( 'NONE',  ( 9.500000000000001776, -2.407412430484044816E-32, -7.000000000000000888 ) ) ;
#68 = CARTESIAN_POINT ( 'NONE',  ( 40.00000000000000000, 9.500000000000005329, 0.000000000000000000 ) ) ;
#69 = FACE_BOUND ( 'NONE', #285, .T. ) ;
#70 = ORIENTED_EDGE ( 'NONE', *, *, #312, .F. ) ;
#71 = ORIENTED_EDGE ( 'NONE', *, *, #312, .T. ) ;
#72 = CARTESIAN_POINT ( 'NONE',  ( 9.500000000000001776, -1.626303258728256651E-16, 7.000000000000000000 ) ) ;
#73 = CARTESIAN_POINT ( 'NONE',  ( 8.508077821012140163, -1.746968330274872638, -6.779297230211255076 ) ) ;
#74 = CARTESIAN_POINT ( 'NONE',  ( 5.766293639281745875, -1.005573473014547581, 6.928260705410964171 ) ) ;
#75 = CIRCLE ( 'NONE', #96, 6.999999999999999112 ) ;
#76 = PRODUCT_DEFINITION_FORMATION_WITH_SPECIFIED_SOURCE ( 'ANY', '', #100, .NOT_KNOWN. ) ;
#77 = CARTESIAN_POINT ( 'NONE',  ( 5.702787746924896872, -0.8871658075827564272, -6.944612690286008139 ) ) ;
#78 = ORIENTED_EDGE ( 'NONE', *, *, #18, .T. ) ;
#79 = EDGE_CURVE ( 'NONE', #10, #10, #65, .T. ) ;
#80 = CARTESIAN_POINT ( 'NONE',  ( 7.234747573542422927, 1.986633563944614433, 6.712227924078428387 ) ) ;
#81 = CARTESIAN_POINT ( 'NONE',  ( 6.494841309208952751, 1.733925575223948634, 6.782258415721988953 ) ) ;
#82 = CARTESIAN_POINT ( 'NONE',  ( 9.500000000000001776, 0.1328729097219937816, 7.000000000000000888 ) ) ;
#83 = CARTESIAN_POINT ( 'NONE',  ( 9.234459410772664967, 1.004355444134897635, 6.928446179753782630 ) ) ;
#84 = CLOSED_SHELL ( 'NONE', ( #210, #189, #159, #260, #205, #229, #87, #41 ) ) ;
#85 = DIRECTION ( 'NONE',  ( 0.000000000000000000, 0.000000000000000000, -1.000000000000000000 ) ) ;
#86 = MECHANICAL_DESIGN_GEOMETRIC_PRESENTATION_REPRESENTATION (  '', ( #104 ), #1 ) ;
#87 = ADVANCED_FACE ( 'NONE', ( #107 ), #297, .F. ) ;
#88 = FACE_OUTER_BOUND ( 'NONE', #317, .T. ) ;
#89 = VERTEX_POINT ( 'NONE', #182 ) ;
#90 = FACE_OUTER_BOUND ( 'NONE', #193, .T. ) ;
#91 = CARTESIAN_POINT ( 'NONE',  ( 40.00000000000000000, 0.000000000000000000, 7.000000000000002665 ) ) ;
#92 = CARTESIAN_POINT ( 'NONE',  ( 9.435655350820805864, 0.5199524433800036816, -6.981844816148541355 ) ) ;
#93 = DIRECTION ( 'NONE',  ( 0.000000000000000000, 0.000000000000000000, 1.000000000000000000 ) ) ;
#94 = CARTESIAN_POINT ( 'NONE',  ( 6.270597139458280900, 1.599017193891166144, -6.817531761756294273 ) ) ;
#95 = CARTESIAN_POINT ( 'NONE',  ( 7.632522109029011403, -1.999913025515744236, 6.708229863274453919 ) ) ;
#96 = AXIS2_PLACEMENT_3D ( 'NONE', #149, #225, #300 ) ;
#97 = EDGE_LOOP ( 'NONE', ( #235 ) ) ;
#98 = EDGE_LOOP ( 'NONE', ( #262 ) ) ;
#99 =( NAMED_UNIT ( * ) PLANE_ANGLE_UNIT ( ) SI_UNIT ( $, .RADIAN. ) );
#100 = PRODUCT ( '76.04.02.0007', '76.04.02.0007', '', ( #128 ) ) ;
#101 = CARTESIAN_POINT ( 'NONE',  ( 5.703414891121686203, -0.8884439563535901918, 6.944449705707822496 ) ) ;
#102 = DIRECTION ( 'NONE',  ( 1.000000000000000000, 0.000000000000000000, 0.000000000000000000 ) ) ;
#103 =( GEOMETRIC_REPRESENTATION_CONTEXT ( 3 ) GLOBAL_UNCERTAINTY_ASSIGNED_CONTEXT ( ( #279 ) ) GLOBAL_UNIT_ASSIGNED_CONTEXT ( ( #130, #5, #15 ) ) REPRESENTATION_CONTEXT ( 'NONE', 'WORKASPACE' ) );
#104 = STYLED_ITEM ( 'NONE', ( #197 ), #14 ) ;
#105 = EDGE_LOOP ( 'NONE', ( #289 ) ) ;
#106 = CARTESIAN_POINT ( 'NONE',  ( 6.978533742595823597, 1.935237636447212806, 6.727226167793653566 ) ) ;
#107 = FACE_OUTER_BOUND ( 'NONE', #240, .T. ) ;
#108 = AXIS2_PLACEMENT_3D ( 'NONE', #68, #277, #85 ) ;
#109 = SURFACE_STYLE_USAGE ( .BOTH. , #246 ) ;
#110 = DIRECTION ( 'NONE',  ( 0.000000000000000000, 0.000000000000000000, 1.000000000000000000 ) ) ;
#111 = EDGE_CURVE ( 'NONE', #308, #308, #75, .T. ) ;
#112 = CARTESIAN_POINT ( 'NONE',  ( 8.147973272870403960, 1.896593612547576413, -6.738369076789056500 ) ) ;
#113 = DIRECTION ( 'NONE',  ( 0.000000000000000000, 0.000000000000000000, 1.000000000000000000 ) ) ;
#114 = DIRECTION ( 'NONE',  ( -0.000000000000000000, 0.000000000000000000, 1.000000000000000000 ) ) ;
#115 = MANIFOLD_SOLID_BREP ( 'Cut-Extrude1', #84 ) ;
#116 = DIRECTION ( 'NONE',  ( 0.000000000000000000, 0.000000000000000000, 1.000000000000000000 ) ) ;
#117 = AXIS2_PLACEMENT_3D ( 'NONE', #139, #62, #110 ) ;
#118 = AXIS2_PLACEMENT_3D ( 'NONE', #181, #12, #93 ) ;
#119 = CARTESIAN_POINT ( 'NONE',  ( 6.979725891775403923, 1.935586691976381779, -6.727125645283256183 ) ) ;
#120 = CARTESIAN_POINT ( 'NONE',  ( 7.236800597737057750, 1.986934086600108174, -6.712138871111824834 ) ) ;
#121 = ORIENTED_EDGE ( 'NONE', *, *, #276, .T. ) ;
#122 = CARTESIAN_POINT ( 'NONE',  ( 9.005603351506703547, -1.322869345845431921, 6.874502372252739413 ) ) ;
#123 = PRESENTATION_LAYER_ASSIGNMENT (  '', '', ( #270 ) ) ;
#124 = CARTESIAN_POINT ( 'NONE',  ( 7.762745978160636717, -1.987041475874555596, 6.712107732003818938 ) ) ;
#125 = CARTESIAN_POINT ( 'NONE',  ( 9.234459410772664967, -1.004355444134897635, -6.928446179753782630 ) ) ;
#126 = CARTESIAN_POINT ( 'NONE',  ( 8.021219012530091064, -1.935381103778393008, 6.727185445341067549 ) ) ;
#127 = SURFACE_SIDE_STYLE ('',( #292 ) ) ;
#128 = PRODUCT_CONTEXT ( 'NONE', #27, 'mechanical' ) ;
#129 = CIRCLE ( 'NONE', #118, 7.000000000000002665 ) ;
#130 =( LENGTH_UNIT ( ) NAMED_UNIT ( * ) SI_UNIT ( .MILLI., .METRE. ) );
#131 = CARTESIAN_POINT ( 'NONE',  ( 6.177237321607107923, 1.505762237629875377, 6.836780074312184041 ) ) ;
#132 = DIRECTION ( 'NONE',  ( 0.000000000000000000, 0.000000000000000000, -1.000000000000000000 ) ) ;
#133 = FACE_OUTER_BOUND ( 'NONE', #2, .T. ) ;
#134 = CARTESIAN_POINT ( 'NONE',  ( 41.49999999999999289, 0.000000000000000000, 9.500000000000003553 ) ) ;
#135 = CARTESIAN_POINT ( 'NONE',  ( 8.146519398062180173, 1.897114250112341249, 6.738223047855723458 ) ) ;
#136 = CARTESIAN_POINT ( 'NONE',  ( 9.089584772079769337, 1.220756428606235344, -6.893607041439429040 ) ) ;
#137 = CARTESIAN_POINT ( 'NONE',  ( 7.370116228607364484, 2.000086104380975449, -6.708178261138932008 ) ) ;
#138 = DIRECTION ( 'NONE',  ( -1.000000000000000000, 0.000000000000000000, -0.000000000000000000 ) ) ;
#139 = CARTESIAN_POINT ( 'NONE',  ( -4.009977045591169573E-16, 0.000000000000000000, 0.000000000000000000 ) ) ;
#140 = DIRECTION ( 'NONE',  ( -1.000000000000000000, -0.000000000000000000, -0.000000000000000000 ) ) ;
#141 = CIRCLE ( 'NONE', #316, 9.500000000000005329 ) ;
#142 = CARTESIAN_POINT ( 'NONE',  ( 8.018895029590666468, -1.935969192517092985, -6.727015297699582952 ) ) ;
#143 = ORIENTED_EDGE ( 'NONE', *, *, #54, .T. ) ;
#144 = EDGE_LOOP ( 'NONE', ( #70 ) ) ;
#145 = CONICAL_SURFACE ( 'NONE', #282, 6.999999999999999112, 0.7853981633974463916 ) ;
#146 = CARTESIAN_POINT ( 'NONE',  ( 9.089011744225285128, -1.221524040899470531, -6.893473387299962063 ) ) ;
#147 = CARTESIAN_POINT ( 'NONE',  ( 5.911130081222310650, -1.221641574287992693, 6.893443716731381343 ) ) ;
#148 = CARTESIAN_POINT ( 'NONE',  ( 9.396862274927171299, -0.6473598323664969678, 6.971063929205214116 ) ) ;
#149 = CARTESIAN_POINT ( 'NONE',  ( 1.499999999999999112, 0.000000000000000000, 0.000000000000000000 ) ) ;
#150 = AXIS2_PLACEMENT_3D ( 'NONE', #272, #153, #198 ) ;
#151 = DIRECTION ( 'NONE',  ( -1.000000000000000000, -0.000000000000000000, -0.000000000000000000 ) ) ;
#152 = CARTESIAN_POINT ( 'NONE',  ( 9.396346535563479208, -0.6487826489021599752, -6.970924272643943986 ) ) ;
#153 = DIRECTION ( 'NONE',  ( -0.000000000000000000, -0.000000000000000000, 1.000000000000000000 ) ) ;
#154 = AXIS2_PLACEMENT_3D ( 'NONE', #209, #231, #203 ) ;
#155 = CARTESIAN_POINT ( 'NONE',  ( 5.910529672231294995, 1.220891589701988744, 6.893581199168648865 ) ) ;
#156 = DIRECTION ( 'NONE',  ( 0.000000000000000000, 0.000000000000000000, 1.000000000000000000 ) ) ;
#157 = FACE_OUTER_BOUND ( 'NONE', #98, .T. ) ;
#158 = CARTESIAN_POINT ( 'NONE',  ( 43.00000000000000000, 0.000000000000000000, 0.000000000000000000 ) ) ;
#159 = ADVANCED_FACE ( 'NONE', ( #90, #254 ), #274, .T. ) ;
#160 = CARTESIAN_POINT ( 'NONE',  ( 9.486891335408076387, 0.2633913472731422289, -6.996222736472787140 ) ) ;
#161 = CARTESIAN_POINT ( 'NONE',  ( 41.49999999999999289, 0.000000000000000000, 0.000000000000000000 ) ) ;
#162 = CARTESIAN_POINT ( 'NONE',  ( 6.279191200365347392, -1.589486636880935944, -6.817555232575997159 ) ) ;
#163 = EDGE_CURVE ( 'NONE', #275, #275, #250, .T. ) ;
#164 = EDGE_LOOP ( 'NONE', ( #71 ) ) ;
#165 = APPLICATION_CONTEXT ( 'automotive_design' ) ;
#166 = CARTESIAN_POINT ( 'NONE',  ( 9.486891335408076387, -0.2633913472731422289, 6.996222736472787140 ) ) ;
#167 = CARTESIAN_POINT ( 'NONE',  ( 6.978533742595823597, -1.935237636447212806, -6.727226167793653566 ) ) ;
#168 = ORIENTED_EDGE ( 'NONE', *, *, #163, .F. ) ;
#169 = FILL_AREA_STYLE ('',( #320 ) ) ;
#170 = CARTESIAN_POINT ( 'NONE',  ( 5.765501804863589541, -1.004245093456140214, -6.928457968091154662 ) ) ;
#171 = CARTESIAN_POINT ( 'NONE',  ( 6.979725891775403923, -1.935586691976381779, 6.727125645283256183 ) ) ;
#172 = AXIS2_PLACEMENT_3D ( 'NONE', #233, #38, #116 ) ;
#173 = CARTESIAN_POINT ( 'NONE',  ( 5.992830690723859099, -1.321159223105738523, -6.874839635074177835 ) ) ;
#174 = CARTESIAN_POINT ( 'NONE',  ( 9.089584772079769337, -1.220756428606235344, 6.893607041439429040 ) ) ;
#175 = CARTESIAN_POINT ( 'NONE',  ( 6.609478292796955756, 1.795665307985615078, 6.765970348065053486 ) ) ;
#176 = CARTESIAN_POINT ( 'NONE',  ( 7.761421847467224744, 1.987180762732975614, 6.712065564793263661 ) ) ;
#177 = AXIS2_PLACEMENT_3D ( 'NONE', #9, #151, #224 ) ;
#178 = FILL_AREA_STYLE_COLOUR ( '', #238 ) ;
#179 = CARTESIAN_POINT ( 'NONE',  ( 5.552701440454314685, 0.5255173936034566173, 6.984458878246900149 ) ) ;
#180 = CARTESIAN_POINT ( 'NONE',  ( 6.853337219325693397, 1.897174229582900162, 6.738211824498034019 ) ) ;
#181 = CARTESIAN_POINT ( 'NONE',  ( 40.00000000000000000, 0.000000000000000000, 0.000000000000000000 ) ) ;
#182 = CARTESIAN_POINT ( 'NONE',  ( 40.00000000000000000, 0.000000000000000000, 9.500000000000005329 ) ) ;
#183 = FACE_OUTER_BOUND ( 'NONE', #53, .T. ) ;
#184 = VERTEX_POINT ( 'NONE', #134 ) ;
#185 = CARTESIAN_POINT ( 'NONE',  ( 9.234723709089168509, 1.003872331890494740, -6.928513884018093094 ) ) ;
#186 =( NAMED_UNIT ( * ) SI_UNIT ( $, .STERADIAN. ) SOLID_ANGLE_UNIT ( ) );
#187 = PRODUCT_DEFINITION_SHAPE ( 'NONE', 'NONE',  #30 ) ;
#188 = DIRECTION ( 'NONE',  ( 0.000000000000000000, 0.000000000000000000, -1.000000000000000000 ) ) ;
#189 = ADVANCED_FACE ( 'NONE', ( #40, #13 ), #239, .T. ) ;
#190 = CARTESIAN_POINT ( 'NONE',  ( 5.552701440454314685, -0.5255173936034566173, -6.984458878246900149 ) ) ;
#191 = CARTESIAN_POINT ( 'NONE',  ( 7.370116228607364484, -2.000086104380975449, 6.708178261138932008 ) ) ;
#192 = ORIENTED_EDGE ( 'NONE', *, *, #293, .F. ) ;
#193 = EDGE_LOOP ( 'NONE', ( #50 ) ) ;
#194 = EDGE_LOOP ( 'NONE', ( #192 ) ) ;
#195 = CARTESIAN_POINT ( 'NONE',  ( 9.435376982006561164, -0.5211030426447135211, -6.981767182948574124 ) ) ;
#196 = DIRECTION ( 'NONE',  ( 1.000000000000000000, 0.000000000000000000, 0.000000000000000000 ) ) ;
#197 = PRESENTATION_STYLE_ASSIGNMENT (( #263 ) ) ;
#198 = DIRECTION ( 'NONE',  ( 1.000000000000000000, 0.000000000000000000, 0.000000000000000000 ) ) ;
#199 = CARTESIAN_POINT ( 'NONE',  ( -2.004988522795584786E-16, 5.500000000000005329, 0.000000000000000000 ) ) ;
#200 = CARTESIAN_POINT ( 'NONE',  ( 5.765501804863589541, 1.004245093456140214, 6.928457968091154662 ) ) ;
#201 = CARTESIAN_POINT ( 'NONE',  ( 8.018895029590666468, 1.935969192517092985, 6.727015297699582952 ) ) ;
#202 = VERTEX_POINT ( 'NONE', #67 ) ;
#203 = DIRECTION ( 'NONE',  ( 0.000000000000000000, 0.000000000000000000, 1.000000000000000000 ) ) ;
#204 = CARTESIAN_POINT ( 'NONE',  ( 9.005603351506703547, 1.322869345845431921, -6.874502372252739413 ) ) ;
#205 = ADVANCED_FACE ( 'NONE', ( #37, #63, #157, #307 ), #281, .T. ) ;
#206 = CARTESIAN_POINT ( 'NONE',  ( 9.296213096854549107, 0.8892579790429944175, -6.944352187521592334 ) ) ;
#207 = DIRECTION ( 'NONE',  ( 1.000000000000000000, 0.000000000000000000, 0.000000000000000000 ) ) ;
#208 = SHAPE_DEFINITION_REPRESENTATION ( #187, #14 ) ;
#209 = CARTESIAN_POINT ( 'NONE',  ( 43.00000000000000000, 0.000000000000000000, 0.000000000000000000 ) ) ;
#210 = ADVANCED_FACE ( 'NONE', ( #183 ), #64, .F. ) ;
#211 = CARTESIAN_POINT ( 'NONE',  ( 5.911130081222310650, 1.221641574287992693, -6.893443716731381343 ) ) ;
#212 = CARTESIAN_POINT ( 'NONE',  ( 8.730377801624737089, -1.597957915044079913, 6.817741208852980961 ) ) ;
#213 = CARTESIAN_POINT ( 'NONE',  ( 5.564998853760701358, 0.5225777989337824225, -6.981662529645753956 ) ) ;
#214 = ORIENTED_EDGE ( 'NONE', *, *, #276, .F. ) ;
#215 = PRESENTATION_LAYER_ASSIGNMENT (  '', '', ( #104 ) ) ;
#216 = CARTESIAN_POINT ( 'NONE',  ( 6.494841309208952751, -1.733925575223948634, -6.782258415721988953 ) ) ;
#217 = CARTESIAN_POINT ( 'NONE',  ( 6.490204064754155233, -1.746292916079221325, 6.779483643592844722 ) ) ;
#218 = CARTESIAN_POINT ( 'NONE',  ( 9.295896173694821130, -0.8898348396013819883, -6.944270883158618624 ) ) ;
#219 = ORIENTED_EDGE ( 'NONE', *, *, #293, .T. ) ;
#220 = B_SPLINE_CURVE_WITH_KNOTS ( 'NONE', 3,
 ( #72, #296, #166, #236, #148, #43, #48, #174, #122, #212, #19, #315, #126, #124, #95, #191, #288, #171, #259, #217, #319, #291, #147, #74, #101, #243, #25, #322, #34, #3, #179, #223, #200, #155, #298, #131, #252, #81, #175, #180, #106, #80, #226, #302, #176, #201, #135, #303, #227, #55, #269, #83, #56, #247, #268, #58, #82, #32 ),
 .UNSPECIFIED., .T., .F.,
 ( 4, 2, 2, 2, 2, 2, 2, 2, 2, 2, 2, 2, 2, 2, 2, 2, 2, 2, 2, 2, 2, 2, 2, 2, 2, 2, 2, 2, 4 ),
 ( 0.000000000000000000, 0.0003928108448618230814, 0.0007856216897236461627, 0.001178432534585469298, 0.001571243379447292325, 0.002356865069170938597, 0.002749675914032759239, 0.003142486758894582483, 0.003535297603756403558, 0.003928108448618224634, 0.004713730138341865918, 0.005106540983203685692, 0.005499351828065506334, 0.005892162672927326976, 0.006284973517789146751, 0.007070595207512787167, 0.007463406052374607809, 0.007856216897236426716, 0.008249027742098248225, 0.008641838586960069735, 0.009034649431821887774, 0.009427460276683709284, 0.009820271121545530793, 0.01021308196640735230, 0.01099870365613100053, 0.01139151450099282897, 0.01178432534585465742, 0.01217713619071648240, 0.01256994703557831085 ),
 .UNSPECIFIED. ) ;
#221 = EDGE_LOOP ( 'NONE', ( #219 ) ) ;
#222 = COLOUR_RGB ( '',0.7764705882352941346, 0.7568627450980391913, 0.7372549019607843590 ) ;
#223 = CARTESIAN_POINT ( 'NONE',  ( 5.702787746924896872, 0.8871658075827564272, 6.944612690286008139 ) ) ;
#224 = DIRECTION ( 'NONE',  ( 0.000000000000000000, 0.000000000000000000, 1.000000000000000000 ) ) ;
#225 = DIRECTION ( 'NONE',  ( -1.000000000000000000, -0.000000000000000000, -0.000000000000000000 ) ) ;
#226 = CARTESIAN_POINT ( 'NONE',  ( 7.367406292895790187, 1.999951807442586604, 6.708218300742919027 ) ) ;
#227 = CARTESIAN_POINT ( 'NONE',  ( 8.729905465984259649, 1.598313451048314349, 6.817655322462390366 ) ) ;
#228 = CARTESIAN_POINT ( 'NONE',  ( 8.730377801624737089, 1.597957915044079913, -6.817741208852980961 ) ) ;
#229 = ADVANCED_FACE ( 'NONE', ( #255, #304 ), #145, .T. ) ;
#230 = CARTESIAN_POINT ( 'NONE',  ( 0.000000000000000000, 0.000000000000000000, 0.000000000000000000 ) ) ;
#231 = DIRECTION ( 'NONE',  ( -1.000000000000000000, -0.000000000000000000, -0.000000000000000000 ) ) ;
#232 = AXIS2_PLACEMENT_3D ( 'NONE', #161, #283, #156 ) ;
#233 = CARTESIAN_POINT ( 'NONE',  ( 0.000000000000000000, 0.000000000000000000, 0.000000000000000000 ) ) ;
#234 = CARTESIAN_POINT ( 'NONE',  ( 9.486885886765724862, -0.2636606085587738790, -6.996220727038680032 ) ) ;
#235 = ORIENTED_EDGE ( 'NONE', *, *, #79, .T. ) ;
#236 = CARTESIAN_POINT ( 'NONE',  ( 9.435655350820805864, -0.5199524433800036816, 6.981844816148541355 ) ) ;
#237 = CARTESIAN_POINT ( 'NONE',  ( 7.234747573542422927, -1.986633563944614433, -6.712227924078428387 ) ) ;
#238 = COLOUR_RGB ( '',0.7764705882352941346, 0.7568627450980391913, 0.7372549019607843590 ) ;
#239 = CONICAL_SURFACE ( 'NONE', #154, 8.000000000000007105, 0.7853981633974442822 ) ;
#240 = EDGE_LOOP ( 'NONE', ( #28 ) ) ;
#241 = APPLICATION_PROTOCOL_DEFINITION ( 'draft international standard', 'automotive_design', 1998, #165 ) ;
#242 = CARTESIAN_POINT ( 'NONE',  ( 5.993421668581459194, 1.321852327708042063, -6.874707648399437154 ) ) ;
#243 = CARTESIAN_POINT ( 'NONE',  ( 5.603147246947255411, -0.6473023638615457154, 6.971062618311932191 ) ) ;
#244 = DIRECTION ( 'NONE',  ( 0.000000000000000000, 0.000000000000000000, 1.000000000000000000 ) ) ;
#245 = EDGE_LOOP ( 'NONE', ( #121 ) ) ;
#246 = SURFACE_SIDE_STYLE ('',( #271 ) ) ;
#247 = CARTESIAN_POINT ( 'NONE',  ( 9.396346535563479208, 0.6487826489021599752, 6.970924272643943986 ) ) ;
#248 = CARTESIAN_POINT ( 'NONE',  ( 9.500000000000001776, 1.626303258728256651E-16, -7.000000000000000000 ) ) ;
#249 = CARTESIAN_POINT ( 'NONE',  ( 40.00000000000000000, 0.000000000000000000, 0.000000000000000000 ) ) ;
#250 = CIRCLE ( 'NONE', #117, 5.500000000000005329 ) ;
#251 =( NAMED_UNIT ( * ) PLANE_ANGLE_UNIT ( ) SI_UNIT ( $, .RADIAN. ) );
#252 = CARTESIAN_POINT ( 'NONE',  ( 6.279191200365347392, 1.589486636880935944, 6.817555232575997159 ) ) ;
#253 = CARTESIAN_POINT ( 'NONE',  ( 9.500000000000001776, 1.626303258728256651E-16, -7.000000000000000000 ) ) ;
#254 = FACE_OUTER_BOUND ( 'NONE', #221, .T. ) ;
#255 = FACE_BOUND ( 'NONE', #46, .T. ) ;
#256 = CARTESIAN_POINT ( 'NONE',  ( 9.396862274927171299, 0.6473598323664969678, -6.971063929205214116 ) ) ;
#257 = CARTESIAN_POINT ( 'NONE',  ( 5.499888525698342079, -0.2610426872097859063, -7.000031849797815120 ) ) ;
#258 = EDGE_LOOP ( 'NONE', ( #78 ) ) ;
#259 = CARTESIAN_POINT ( 'NONE',  ( 6.854710131316717359, -1.897605775779491744, 6.738087761030704392 ) ) ;
#260 = ADVANCED_FACE ( 'NONE', ( #69, #88 ), #309, .F. ) ;
#261 = UNCERTAINTY_MEASURE_WITH_UNIT (LENGTH_MEASURE( 1.000000000000000082E-05 ), #6, 'distance_accuracy_value', 'NONE');
#262 = ORIENTED_EDGE ( 'NONE', *, *, #111, .F. ) ;
#263 = SURFACE_STYLE_USAGE ( .BOTH. , #127 ) ;
#264 = CARTESIAN_POINT ( 'NONE',  ( 8.729905465984259649, -1.598313451048314349, -6.817655322462390366 ) ) ;
#265 = AXIS2_PLACEMENT_3D ( 'NONE', #199, #196, #132 ) ;
#266 = APPLICATION_PROTOCOL_DEFINITION ( 'draft international standard', 'automotive_design', 1998, #27 ) ;
#267 = CARTESIAN_POINT ( 'NONE',  ( 6.177237321607107923, -1.505762237629875377, -6.836780074312184041 ) ) ;
#268 = CARTESIAN_POINT ( 'NONE',  ( 9.435376982006561164, 0.5211030426447135211, 6.981767182948574124 ) ) ;
#269 = CARTESIAN_POINT ( 'NONE',  ( 9.089011744225285128, 1.221524040899470531, 6.893473387299962063 ) ) ;
#270 = STYLED_ITEM ( 'NONE', ( #60 ), #115 ) ;
#271 = SURFACE_STYLE_FILL_AREA ( #33 ) ;
#272 = CARTESIAN_POINT ( 'NONE',  ( 7.500000000000001776, -2.407412430484044816E-32, -9.500000000000005329 ) ) ;
#273 = CARTESIAN_POINT ( 'NONE',  ( 1.499999999999999112, 0.000000000000000000, 6.999999999999999112 ) ) ;
#274 = CYLINDRICAL_SURFACE ( 'NONE', #172, 9.500000000000005329 ) ;
#275 = VERTEX_POINT ( 'NONE', #59 ) ;
#276 = EDGE_CURVE ( 'NONE', #61, #61, #129, .T. ) ;
#277 = DIRECTION ( 'NONE',  ( 1.000000000000000000, 0.000000000000000000, 0.000000000000000000 ) ) ;
#278 = CARTESIAN_POINT ( 'NONE',  ( 7.762745978160636717, 1.987041475874555596, -6.712107732003818938 ) ) ;
#279 = UNCERTAINTY_MEASURE_WITH_UNIT (LENGTH_MEASURE( 1.000000000000000082E-05 ), #130, 'distance_accuracy_value', 'NONE');
#280 = CARTESIAN_POINT ( 'NONE',  ( 43.00000000000000000, 0.000000000000000000, 8.000000000000007105 ) ) ;
#281 = CYLINDRICAL_SURFACE ( 'NONE', #66, 7.000000000000000888 ) ;
#282 = AXIS2_PLACEMENT_3D ( 'NONE', #310, #207, #188 ) ;
#283 = DIRECTION ( 'NONE',  ( -1.000000000000000000, -0.000000000000000000, -0.000000000000000000 ) ) ;
#284 = CARTESIAN_POINT ( 'NONE',  ( 7.367406292895790187, -1.999951807442586604, -6.708218300742919027 ) ) ;
#285 = EDGE_LOOP ( 'NONE', ( #214 ) ) ;
#286 = CIRCLE ( 'NONE', #232, 9.500000000000003553 ) ;
#287 = CARTESIAN_POINT ( 'NONE',  ( 5.766293639281745875, 1.005573473014547581, -6.928260705410964171 ) ) ;
#288 = CARTESIAN_POINT ( 'NONE',  ( 7.236800597737057750, -1.986934086600108174, 6.712138871111824834 ) ) ;
#289 = ORIENTED_EDGE ( 'NONE', *, *, #111, .T. ) ;
#290 = CARTESIAN_POINT ( 'NONE',  ( 8.146519398062180173, -1.897114250112341249, -6.738223047855723458 ) ) ;
#291 = CARTESIAN_POINT ( 'NONE',  ( 5.993421668581459194, -1.321852327708042063, 6.874707648399437154 ) ) ;
#292 = SURFACE_STYLE_FILL_AREA ( #169 ) ;
#293 = EDGE_CURVE ( 'NONE', #184, #184, #286, .T. ) ;
#294 = CARTESIAN_POINT ( 'NONE',  ( 5.603147246947255411, 0.6473023638615457154, -6.971062618311932191 ) ) ;
#295 =( GEOMETRIC_REPRESENTATION_CONTEXT ( 3 ) GLOBAL_UNCERTAINTY_ASSIGNED_CONTEXT ( ( #261 ) ) GLOBAL_UNIT_ASSIGNED_CONTEXT ( ( #6, #251, #8 ) ) REPRESENTATION_CONTEXT ( 'NONE', 'WORKASPACE' ) );
#296 = CARTESIAN_POINT ( 'NONE',  ( 9.500000000000000000, -0.1328729097219921995, 6.999999999999999112 ) ) ;
#297 = PLANE ( 'NONE',  #265 ) ;
#298 = CARTESIAN_POINT ( 'NONE',  ( 5.992830690723859099, 1.321159223105738523, 6.874839635074177835 ) ) ;
#299 = PRODUCT_RELATED_PRODUCT_CATEGORY ( 'part', '', ( #100 ) ) ;
#300 = DIRECTION ( 'NONE',  ( 0.000000000000000000, 0.000000000000000000, 1.000000000000000000 ) ) ;
#301 = MECHANICAL_DESIGN_GEOMETRIC_PRESENTATION_REPRESENTATION (  '', ( #270 ), #103 ) ;
#302 = CARTESIAN_POINT ( 'NONE',  ( 7.631135858525214033, 2.000047926892093653, 6.708189643461916596 ) ) ;
#303 = CARTESIAN_POINT ( 'NONE',  ( 8.508077821012140163, 1.746968330274872638, 6.779297230211255076 ) ) ;
#304 = FACE_OUTER_BOUND ( 'NONE', #105, .T. ) ;
#305 = CARTESIAN_POINT ( 'NONE',  ( 8.021219012530091064, 1.935381103778393008, -6.727185445341067549 ) ) ;
#306 = CARTESIAN_POINT ( 'NONE',  ( 9.500000000000001776, -0.1328729097219937816, -7.000000000000000888 ) ) ;
#307 = FACE_OUTER_BOUND ( 'NONE', #245, .T. ) ;
#308 = VERTEX_POINT ( 'NONE', #273 ) ;
#309 = PLANE ( 'NONE',  #108 ) ;
#310 = CARTESIAN_POINT ( 'NONE',  ( 1.499999999999999112, 0.000000000000000000, 0.000000000000000000 ) ) ;
#311 = CARTESIAN_POINT ( 'NONE',  ( 6.490204064754155233, 1.746292916079221325, -6.779483643592844722 ) ) ;
#312 = EDGE_CURVE ( 'NONE', #202, #202, #314, .T. ) ;
#313 = CARTESIAN_POINT ( 'NONE',  ( 6.609478292796955756, -1.795665307985615078, -6.765970348065053486 ) ) ;
#314 = B_SPLINE_CURVE_WITH_KNOTS ( 'NONE', 3,
 ( #253, #35, #160, #92, #256, #206, #185, #136, #204, #228, #11, #112, #305, #278, #36, #137, #120, #119, #47, #311, #94, #242, #211, #287, #321, #294, #213, #24, #45, #257, #190, #77, #170, #20, #173, #267, #162, #216, #313, #52, #167, #237, #284, #318, #42, #142, #290, #73, #264, #49, #146, #125, #218, #152, #195, #234, #306, #248 ),
 .UNSPECIFIED., .T., .F.,
 ( 4, 2, 2, 2, 2, 2, 2, 2, 2, 2, 2, 2, 2, 2, 2, 2, 2, 2, 2, 2, 2, 2, 2, 2, 2, 2, 2, 2, 4 ),
 ( 0.000000000000000000, 0.0003928108448618230814, 0.0007856216897236461627, 0.001178432534585469298, 0.001571243379447292325, 0.002356865069170938597, 0.002749675914032759239, 0.003142486758894582483, 0.003535297603756403558, 0.003928108448618224634, 0.004713730138341865918, 0.005106540983203685692, 0.005499351828065506334, 0.005892162672927326976, 0.006284973517789146751, 0.007070595207512787167, 0.007463406052374607809, 0.007856216897236426716, 0.008249027742098248225, 0.008641838586960069735, 0.009034649431821887774, 0.009427460276683709284, 0.009820271121545530793, 0.01021308196640735230, 0.01099870365613100053, 0.01139151450099282897, 0.01178432534585465742, 0.01217713619071648240, 0.01256994703557831085 ),
 .UNSPECIFIED. ) ;
#315 = CARTESIAN_POINT ( 'NONE',  ( 8.147973272870403960, -1.896593612547576413, 6.738369076789056500 ) ) ;
#316 = AXIS2_PLACEMENT_3D ( 'NONE', #249, #57, #4 ) ;
#317 = EDGE_LOOP ( 'NONE', ( #143 ) ) ;
#318 = CARTESIAN_POINT ( 'NONE',  ( 7.631135858525214033, -2.000047926892093653, -6.708189643461916596 ) ) ;
#319 = CARTESIAN_POINT ( 'NONE',  ( 6.270597139458280900, -1.599017193891166144, 6.817531761756294273 ) ) ;
#320 = FILL_AREA_STYLE_COLOUR ( '', #222 ) ;
#321 = CARTESIAN_POINT ( 'NONE',  ( 5.703414891121686203, 0.8884439563535901918, -6.944449705707822496 ) ) ;
#322 = CARTESIAN_POINT ( 'NONE',  ( 5.513209139039284779, -0.2645355679088474132, 6.996193262561372528 ) ) ;
ENDSEC;
END-ISO-10303-21;
