ISO-10303-21;
HEADER;
FILE_DESCRIPTION (( 'STEP AP214' ),
    '1' );
FILE_NAME ('76.04.02.0006.step',
    '2021-04-02T18:00:09',
    ( '' ),
    ( '' ),
    'SwSTEP 2.0',
    'SolidWorks 2021',
    '' );
FILE_SCHEMA (( 'AUTOMOTIVE_DESIGN' ));
ENDSEC;

DATA;
#1 = CARTESIAN_POINT ( 'NONE',  ( 6.020644071227415850, -1.935535540705378921, -5.679299863499476686 ) ) ;
#2 = VERTEX_POINT ( 'NONE', #291 ) ;
#3 = CARTESIAN_POINT ( 'NONE',  ( 7.234231897006853096, -1.004668640024029225, -5.916311260470016542 ) ) ;
#4 = CARTESIAN_POINT ( 'NONE',  ( 6.509186397556166348, -1.746209203716011515, 5.741237610664247981 ) ) ;
#5 = EDGE_LOOP ( 'NONE', ( #50 ) ) ;
#6 = CARTESIAN_POINT ( 'NONE',  ( 0.000000000000000000, 0.000000000000000000, 0.000000000000000000 ) ) ;
#7 = CARTESIAN_POINT ( 'NONE',  ( 7.435413015933839631, -0.5209032848921311132, -5.978731772073636819 ) ) ;
#8 = CARTESIAN_POINT ( 'NONE',  ( 7.089069900028459159, -1.221418717805088816, 5.875397347880998211 ) ) ;
#9 = ADVANCED_FACE ( 'NONE', ( #74, #224 ), #87, .T. ) ;
#10 = ORIENTED_EDGE ( 'NONE', *, *, #147, .T. ) ;
#11 = APPLICATION_PROTOCOL_DEFINITION ( 'draft international standard', 'automotive_design', 1998, #279 ) ;
#12 = CARTESIAN_POINT ( 'NONE',  ( 3.513182583331854403, -0.2645559447028005828, 5.995568316425109678 ) ) ;
#13 = FILL_AREA_STYLE ('',( #14 ) ) ;
#14 = FILL_AREA_STYLE_COLOUR ( '', #318 ) ;
#15 = CARTESIAN_POINT ( 'NONE',  ( 38.00000000000000711, 0.000000000000000000, 0.000000000000000000 ) ) ;
#16 = CARTESIAN_POINT ( 'NONE',  ( 3.766590847567969025, -1.006084829641461287, 5.916069256194004922 ) ) ;
#17 = CARTESIAN_POINT ( 'NONE',  ( 6.020644071227415850, 1.935535540705378921, 5.679299863499476686 ) ) ;
#18 = EDGE_CURVE ( 'NONE', #261, #261, #186, .T. ) ;
#19 = CARTESIAN_POINT ( 'NONE',  ( 35.00000000000000000, 0.000000000000000000, 0.000000000000000000 ) ) ;
#20 = DIRECTION ( 'NONE',  ( 0.000000000000000000, 0.000000000000000000, 1.000000000000000000 ) ) ;
#21 = FACE_BOUND ( 'NONE', #170, .T. ) ;
#22 =( LENGTH_UNIT ( ) NAMED_UNIT ( * ) SI_UNIT ( .MILLI., .METRE. ) );
#23 = DIRECTION ( 'NONE',  ( 0.000000000000000000, 0.000000000000000000, 1.000000000000000000 ) ) ;
#24 = CARTESIAN_POINT ( 'NONE',  ( 6.148890556403808105, 1.896277138988046174, -5.692705594307804873 ) ) ;
#25 = UNCERTAINTY_MEASURE_WITH_UNIT (LENGTH_MEASURE( 1.000000000000000082E-05 ), #179, 'distance_accuracy_value', 'NONE');
#26 = CARTESIAN_POINT ( 'NONE',  ( 3.766254548163098015, -1.005501256792735276, -5.916168434159371436 ) ) ;
#27 = ORIENTED_EDGE ( 'NONE', *, *, #141, .T. ) ;
#28 = CARTESIAN_POINT ( 'NONE',  ( 0.000000000000000000, 0.000000000000000000, 0.000000000000000000 ) ) ;
#29 = EDGE_LOOP ( 'NONE', ( #10 ) ) ;
#30 = CARTESIAN_POINT ( 'NONE',  ( 7.089491420560611878, -1.220834293754859301, -5.875513733641011704 ) ) ;
#31 = EDGE_LOOP ( 'NONE', ( #298 ) ) ;
#32 =( GEOMETRIC_REPRESENTATION_CONTEXT ( 3 ) GLOBAL_UNCERTAINTY_ASSIGNED_CONTEXT ( ( #126 ) ) GLOBAL_UNIT_ASSIGNED_CONTEXT ( ( #153, #234, #206 ) ) REPRESENTATION_CONTEXT ( 'NONE', 'WORKASPACE' ) );
#33 = EDGE_LOOP ( 'NONE', ( #302 ) ) ;
#34 = CARTESIAN_POINT ( 'NONE',  ( 4.853806021728090059, -1.897312994660367291, 5.692365997572657932 ) ) ;
#35 = SURFACE_SIDE_STYLE ('',( #105 ) ) ;
#36 = CARTESIAN_POINT ( 'NONE',  ( 3.565204938273411006, -0.5234513961886764211, 5.978530582059971898 ) ) ;
#37 = CARTESIAN_POINT ( 'NONE',  ( 3.703735421006609574, -0.8890685857546740678, 5.935005968993722014 ) ) ;
#38 = CARTESIAN_POINT ( 'NONE',  ( -1.841572700620160951E-16, 0.000000000000000000, 0.000000000000000000 ) ) ;
#39 = CARTESIAN_POINT ( 'NONE',  ( 5.631644983969305684, 2.000010835952009458, 5.656850418404820502 ) ) ;
#40 = CIRCLE ( 'NONE', #120, 6.000000000000001776 ) ;
#41 = FACE_OUTER_BOUND ( 'NONE', #275, .T. ) ;
#42 = PLANE ( 'NONE',  #103 ) ;
#43 = DIRECTION ( 'NONE',  ( 0.000000000000000000, 0.000000000000000000, 1.000000000000000000 ) ) ;
#44 = CARTESIAN_POINT ( 'NONE',  ( 35.00000000000000000, 0.000000000000000000, 6.000000000000001776 ) ) ;
#45 = CARTESIAN_POINT ( 'NONE',  ( 7.295746753613325808, 0.8901964707900200668, -5.934847296002590866 ) ) ;
#46 = CARTESIAN_POINT ( 'NONE',  ( 38.00000000000000711, 0.000000000000000000, 0.000000000000000000 ) ) ;
#47 = EDGE_LOOP ( 'NONE', ( #273 ) ) ;
#48 = FILL_AREA_STYLE ('',( #51 ) ) ;
#49 = CYLINDRICAL_SURFACE ( 'NONE', #96, 8.500000000000003553 ) ;
#50 = ORIENTED_EDGE ( 'NONE', *, *, #75, .T. ) ;
#51 = FILL_AREA_STYLE_COLOUR ( '', #293 ) ;
#52 = CARTESIAN_POINT ( 'NONE',  ( 7.486836486607476360, -0.2639033490118382064, 5.995575825653401303 ) ) ;
#53 = ORIENTED_EDGE ( 'NONE', *, *, #147, .F. ) ;
#54 = CARTESIAN_POINT ( 'NONE',  ( 5.234585679963925209, 1.986628532218333909, 5.661629695159657416 ) ) ;
#55 = B_SPLINE_CURVE_WITH_KNOTS ( 'NONE', 3,
 ( #177, #115, #52, #100, #119, #226, #223, #8, #76, #201, #4, #93, #296, #174, #276, #304, #277, #250, #34, #122, #285, #107, #104, #78, #60, #16, #37, #284, #36, #12, #314, #183, #282, #254, #155, #280, #313, #258, #180, #205, #102, #54, #124, #39, #252, #17, #210, #79, #181, #59, #202, #311, #251, #58, #154, #127, #150, #233 ),
 .UNSPECIFIED., .T., .F.,
 ( 4, 2, 2, 2, 2, 2, 2, 2, 2, 2, 2, 2, 2, 2, 2, 2, 2, 2, 2, 2, 2, 2, 2, 2, 2, 2, 2, 2, 4 ),
 ( 0.000000000000000000, 0.0003935945383190280118, 0.0007871890766380560235, 0.001180783614957084090, 0.001574378153276112047, 0.002361567229914170781, 0.002755161768233198739, 0.003148756306552227130, 0.003542350844871255088, 0.003935945383190283045, 0.004329539921509311003, 0.004723134459828338960, 0.005116728998147366918, 0.005510323536466394875, 0.005903918074785422833, 0.006297512613104450790, 0.007084701689742506706, 0.007478296228061534663, 0.007871890766380562621, 0.008659079843018618536, 0.009052674381337647361, 0.009446268919656677920, 0.009839863457975706745, 0.01023345799629473730, 0.01102064707293279495, 0.01141424161125182551, 0.01180783614957085781, 0.01220143068788988663, 0.01259502522620891893 ),
 .UNSPECIFIED. ) ;
#56 = DIRECTION ( 'NONE',  ( -1.000000000000000000, -0.000000000000000000, -0.000000000000000000 ) ) ;
#57 = CIRCLE ( 'NONE', #148, 6.000000000000000000 ) ;
#58 = CARTESIAN_POINT ( 'NONE',  ( 7.396479301864746780, 0.6484788379136059433, 5.966099132590461984 ) ) ;
#59 = CARTESIAN_POINT ( 'NONE',  ( 7.005514622960268056, 1.322962990986547016, 5.853089889558318326 ) ) ;
#60 = CARTESIAN_POINT ( 'NONE',  ( 3.911482682720856197, -1.222099303196796605, 5.875249392293443229 ) ) ;
#61 = DIRECTION ( 'NONE',  ( -1.000000000000000000, -0.000000000000000000, -0.000000000000000000 ) ) ;
#62 = AXIS2_PLACEMENT_3D ( 'NONE', #46, #236, #215 ) ;
#63 = CARTESIAN_POINT ( 'NONE',  ( 3.703735421006609574, 0.8890685857546740678, -5.935005968993722014 ) ) ;
#64 = VERTEX_POINT ( 'NONE', #194 ) ;
#65 = DIRECTION ( 'NONE',  ( -1.000000000000000000, -0.000000000000000000, -0.000000000000000000 ) ) ;
#66 = VERTEX_POINT ( 'NONE', #91 ) ;
#67 = CARTESIAN_POINT ( 'NONE',  ( 5.500000000000006217, -2.407412430484044816E-32, -8.500000000000003553 ) ) ;
#68 =( NAMED_UNIT ( * ) SI_UNIT ( $, .STERADIAN. ) SOLID_ANGLE_UNIT ( ) );
#69 = CARTESIAN_POINT ( 'NONE',  ( 4.495143702082088133, 1.734099221172235916, -5.744435912051455873 ) ) ;
#70 = CARTESIAN_POINT ( 'NONE',  ( 7.486826752465751689, -0.2639758135586129928, -5.995572583537809308 ) ) ;
#71 = CARTESIAN_POINT ( 'NONE',  ( 5.631644983969305684, -2.000010835952009458, -5.656850418404820502 ) ) ;
#72 =( NAMED_UNIT ( * ) SI_UNIT ( $, .STERADIAN. ) SOLID_ANGLE_UNIT ( ) );
#73 = CARTESIAN_POINT ( 'NONE',  ( 4.488404242454719473, -1.745271979882817126, -5.741544207925434407 ) ) ;
#74 = FACE_BOUND ( 'NONE', #144, .T. ) ;
#75 = EDGE_CURVE ( 'NONE', #111, #111, #55, .T. ) ;
#76 = CARTESIAN_POINT ( 'NONE',  ( 7.005285961887270929, -1.323204598855622249, 5.853032951955676744 ) ) ;
#77 = DIRECTION ( 'NONE',  ( 0.000000000000000000, 0.000000000000000000, 1.000000000000000000 ) ) ;
#78 = CARTESIAN_POINT ( 'NONE',  ( 3.993647623109752409, -1.322060469484170886, 5.853300469267279205 ) ) ;
#79 = CARTESIAN_POINT ( 'NONE',  ( 6.509186423930064080, 1.746306335040984870, 5.741211322261797534 ) ) ;
#80 = STYLED_ITEM ( 'NONE', ( #129 ), #101 ) ;
#81 = FACE_BOUND ( 'NONE', #167, .T. ) ;
#82 = CARTESIAN_POINT ( 'NONE',  ( 6.021889177444241348, 1.935205112750687961, -5.679412934121341294 ) ) ;
#83 = DIRECTION ( 'NONE',  ( -0.000000000000000000, -0.000000000000000000, 1.000000000000000000 ) ) ;
#84 = CYLINDRICAL_SURFACE ( 'NONE', #287, 2.000000000000000000 ) ;
#85 = DIRECTION ( 'NONE',  ( 1.000000000000000000, 0.000000000000000000, 0.000000000000000000 ) ) ;
#86 = CARTESIAN_POINT ( 'NONE',  ( 4.978963561364603940, 1.935390990121356847, -5.679348875832658905 ) ) ;
#87 = CONICAL_SURFACE ( 'NONE', #168, 6.000000000000000000, 0.7853981633974465026 ) ;
#88 = APPLICATION_PROTOCOL_DEFINITION ( 'draft international standard', 'automotive_design', 1998, #175 ) ;
#89 = CARTESIAN_POINT ( 'NONE',  ( 6.730440375147365373, -1.597885448045709200, -5.786391917076067593 ) ) ;
#90 = DIRECTION ( 'NONE',  ( -1.000000000000000000, -0.000000000000000000, -0.000000000000000000 ) ) ;
#91 = CARTESIAN_POINT ( 'NONE',  ( 35.00000000000000000, 0.000000000000000000, 8.500000000000003553 ) ) ;
#92 = CARTESIAN_POINT ( 'NONE',  ( 7.500000000000008882, -5.421010862427522170E-17, -6.000000000000002665 ) ) ;
#93 = CARTESIAN_POINT ( 'NONE',  ( 6.148890556403808105, -1.896277138988046174, 5.692705594307804873 ) ) ;
#94 = CARTESIAN_POINT ( 'NONE',  ( 4.852958642862336802, -1.897014113617890629, -5.692465502448547099 ) ) ;
#95 = DIRECTION ( 'NONE',  ( 1.000000000000000000, 0.000000000000000000, 0.000000000000000000 ) ) ;
#96 = AXIS2_PLACEMENT_3D ( 'NONE', #28, #195, #274 ) ;
#97 = STYLED_ITEM ( 'NONE', ( #299 ), #312 ) ;
#98 = CONICAL_SURFACE ( 'NONE', #259, 7.000000000000006217, 0.7853981633974466137 ) ;
#99 = FACE_OUTER_BOUND ( 'NONE', #142, .T. ) ;
#100 = CARTESIAN_POINT ( 'NONE',  ( 7.435431273475680669, -0.5208358549357979816, 5.978737698794990507 ) ) ;
#101 = MANIFOLD_SOLID_BREP ( 'Cut-Extrude1', #178 ) ;
#102 = CARTESIAN_POINT ( 'NONE',  ( 4.977888273212714765, 1.935080626499934509, 5.679454788893231409 ) ) ;
#103 = AXIS2_PLACEMENT_3D ( 'NONE', #131, #85, #294 ) ;
#104 = CARTESIAN_POINT ( 'NONE',  ( 4.177705992343601515, -1.506147378463205566, 5.808656500676011802 ) ) ;
#105 = SURFACE_STYLE_FILL_AREA ( #13 ) ;
#106 = PRODUCT ( '76.04.02.0006', '76.04.02.0006', '', ( #191 ) ) ;
#107 = CARTESIAN_POINT ( 'NONE',  ( 4.279502809926702511, -1.589724157631955626, 5.786054023181769423 ) ) ;
#108 = FACE_OUTER_BOUND ( 'NONE', #121, .T. ) ;
#109 = CARTESIAN_POINT ( 'NONE',  ( 4.279502809926702511, 1.589724157631955626, -5.786054023181769423 ) ) ;
#110 = B_SPLINE_CURVE_WITH_KNOTS ( 'NONE', 3,
 ( #267, #211, #212, #157, #239, #45, #113, #315, #262, #134, #241, #24, #82, #114, #322, #238, #112, #86, #286, #190, #69, #109, #162, #269, #187, #288, #63, #158, #214, #319, #228, #143, #220, #137, #26, #172, #246, #118, #73, #94, #192, #222, #297, #71, #136, #1, #166, #199, #89, #145, #30, #3, #295, #225, #7, #70, #163, #92 ),
 .UNSPECIFIED., .T., .F.,
 ( 4, 2, 2, 2, 2, 2, 2, 2, 2, 2, 2, 2, 2, 2, 2, 2, 2, 2, 2, 2, 2, 2, 2, 2, 2, 2, 2, 2, 4 ),
 ( 0.000000000000000000, 0.0003935945383190280118, 0.0007871890766380560235, 0.001180783614957084090, 0.001574378153276112047, 0.002361567229914170781, 0.002755161768233198739, 0.003148756306552227130, 0.003542350844871255088, 0.003935945383190283045, 0.004329539921509311003, 0.004723134459828338960, 0.005116728998147366918, 0.005510323536466394875, 0.005903918074785422833, 0.006297512613104450790, 0.007084701689742506706, 0.007478296228061534663, 0.007871890766380562621, 0.008659079843018618536, 0.009052674381337647361, 0.009446268919656677920, 0.009839863457975706745, 0.01023345799629473730, 0.01102064707293279495, 0.01141424161125182551, 0.01180783614957085781, 0.01220143068788988663, 0.01259502522620891893 ),
 .UNSPECIFIED. ) ;
#111 = VERTEX_POINT ( 'NONE', #133 ) ;
#112 = CARTESIAN_POINT ( 'NONE',  ( 5.236292779252639029, 1.986875878547647689, -5.661542738627884042 ) ) ;
#113 = CARTESIAN_POINT ( 'NONE',  ( 7.234225729261710924, 1.004722823144662991, -5.916307102267759355 ) ) ;
#114 = CARTESIAN_POINT ( 'NONE',  ( 5.763299380756327750, 1.986972716985101917, -5.661509474216045668 ) ) ;
#115 = CARTESIAN_POINT ( 'NONE',  ( 7.500000000000007994, -0.1331554747843276820, 6.000000000000001776 ) ) ;
#116 = ORIENTED_EDGE ( 'NONE', *, *, #141, .F. ) ;
#117 = SURFACE_SIDE_STYLE ('',( #309 ) ) ;
#118 = CARTESIAN_POINT ( 'NONE',  ( 4.270303529868326287, -1.598774514288298532, -5.786194921595080309 ) ) ;
#119 = CARTESIAN_POINT ( 'NONE',  ( 7.396509808497585325, -0.6483877744006693034, 5.966108905935596951 ) ) ;
#120 = AXIS2_PLACEMENT_3D ( 'NONE', #19, #61, #23 ) ;
#121 = EDGE_LOOP ( 'NONE', ( #271 ) ) ;
#122 = CARTESIAN_POINT ( 'NONE',  ( 4.610463951849481212, -1.796131642253072203, 5.725097237054209032 ) ) ;
#123 = DIRECTION ( 'NONE',  ( 0.000000000000000000, 0.000000000000000000, 1.000000000000000000 ) ) ;
#124 = CARTESIAN_POINT ( 'NONE',  ( 5.368025973940299345, 1.999989150514403624, 5.656858085364785182 ) ) ;
#125 = PRODUCT_DEFINITION_SHAPE ( 'NONE', 'NONE',  #182 ) ;
#126 = UNCERTAINTY_MEASURE_WITH_UNIT (LENGTH_MEASURE( 1.000000000000000082E-05 ), #153, 'distance_accuracy_value', 'NONE');
#127 = CARTESIAN_POINT ( 'NONE',  ( 7.486826752465751689, 0.2639758135586129928, 5.995572583537809308 ) ) ;
#128 = AXIS2_PLACEMENT_3D ( 'NONE', #197, #90, #77 ) ;
#129 = PRESENTATION_STYLE_ASSIGNMENT (( #256 ) ) ;
#130 = DIRECTION ( 'NONE',  ( 1.000000000000000000, 0.000000000000000000, 0.000000000000000000 ) ) ;
#131 = CARTESIAN_POINT ( 'NONE',  ( -9.207863503100804757E-17, 4.500000000000005329, 0.000000000000000000 ) ) ;
#132 = FACE_OUTER_BOUND ( 'NONE', #29, .T. ) ;
#133 = CARTESIAN_POINT ( 'NONE',  ( 7.500000000000007105, 0.000000000000000000, 6.000000000000000888 ) ) ;
#134 = CARTESIAN_POINT ( 'NONE',  ( 6.730594376309759319, 1.597705364247402171, -5.786432247724127009 ) ) ;
#135 = CARTESIAN_POINT ( 'NONE',  ( 1.499999999999999556, 0.000000000000000000, 6.000000000000000000 ) ) ;
#136 = CARTESIAN_POINT ( 'NONE',  ( 5.762164732749054608, -1.987117945956035747, -5.661458031085127907 ) ) ;
#137 = CARTESIAN_POINT ( 'NONE',  ( 3.703424879200846842, -0.8884838824646796862, -5.935099550986777217 ) ) ;
#138 = UNCERTAINTY_MEASURE_WITH_UNIT (LENGTH_MEASURE( 1.000000000000000082E-05 ), #22, 'distance_accuracy_value', 'NONE');
#139 = DIRECTION ( 'NONE',  ( 0.000000000000000000, 0.000000000000000000, -1.000000000000000000 ) ) ;
#140 = AXIS2_PLACEMENT_3D ( 'NONE', #185, #65, #20 ) ;
#141 = EDGE_CURVE ( 'NONE', #66, #66, #253, .T. ) ;
#142 = EDGE_LOOP ( 'NONE', ( #116 ) ) ;
#143 = CARTESIAN_POINT ( 'NONE',  ( 3.499895010714262789, -0.2615395899050729778, -6.000034996426078848 ) ) ;
#144 = EDGE_LOOP ( 'NONE', ( #53 ) ) ;
#145 = CARTESIAN_POINT ( 'NONE',  ( 7.005514622960268056, -1.322962990986547016, -5.853089889558318326 ) ) ;
#146 = EDGE_LOOP ( 'NONE', ( #301 ) ) ;
#147 = EDGE_CURVE ( 'NONE', #2, #2, #198, .T. ) ;
#148 = AXIS2_PLACEMENT_3D ( 'NONE', #169, #270, #272 ) ;
#149 = ORIENTED_EDGE ( 'NONE', *, *, #303, .F. ) ;
#150 = CARTESIAN_POINT ( 'NONE',  ( 7.500000000000009770, 0.1331554747843287090, 6.000000000000003553 ) ) ;
#151 = FACE_OUTER_BOUND ( 'NONE', #47, .T. ) ;
#152 = DIRECTION ( 'NONE',  ( 0.000000000000000000, 0.000000000000000000, 1.000000000000000000 ) ) ;
#153 =( LENGTH_UNIT ( ) NAMED_UNIT ( * ) SI_UNIT ( .MILLI., .METRE. ) );
#154 = CARTESIAN_POINT ( 'NONE',  ( 7.435413015933839631, 0.5209032848921311132, 5.978731772073636819 ) ) ;
#155 = CARTESIAN_POINT ( 'NONE',  ( 3.766254548163098015, 1.005501256792735276, 5.916168434159371436 ) ) ;
#156 = ADVANCED_FACE ( 'NONE', ( #151 ), #232, .F. ) ;
#157 = CARTESIAN_POINT ( 'NONE',  ( 7.435431273475680669, 0.5208358549357979816, -5.978737698794990507 ) ) ;
#158 = CARTESIAN_POINT ( 'NONE',  ( 3.603486032481512780, 0.6482624151756810615, -5.966112188287907792 ) ) ;
#159 = DIRECTION ( 'NONE',  ( 0.000000000000000000, 0.000000000000000000, -1.000000000000000000 ) ) ;
#160 = AXIS2_PLACEMENT_3D ( 'NONE', #321, #189, #159 ) ;
#161 = FACE_BOUND ( 'NONE', #5, .T. ) ;
#162 = CARTESIAN_POINT ( 'NONE',  ( 4.177705992343601515, 1.506147378463205566, -5.808656500676011802 ) ) ;
#163 = CARTESIAN_POINT ( 'NONE',  ( 7.500000000000009770, -0.1331554747843287090, -6.000000000000003553 ) ) ;
#164 = EDGE_LOOP ( 'NONE', ( #196 ) ) ;
#165 = EDGE_CURVE ( 'NONE', #242, #242, #40, .T. ) ;
#166 = CARTESIAN_POINT ( 'NONE',  ( 6.147937164283445277, -1.896625475588840537, -5.692590370035004455 ) ) ;
#167 = EDGE_LOOP ( 'NONE', ( #230 ) ) ;
#168 = AXIS2_PLACEMENT_3D ( 'NONE', #229, #95, #139 ) ;
#169 = CARTESIAN_POINT ( 'NONE',  ( 1.499999999999999556, 0.000000000000000000, 0.000000000000000000 ) ) ;
#170 = EDGE_LOOP ( 'NONE', ( #248 ) ) ;
#171 = DIRECTION ( 'NONE',  ( 0.000000000000000000, 0.000000000000000000, 1.000000000000000000 ) ) ;
#172 = CARTESIAN_POINT ( 'NONE',  ( 3.911036666986108301, -1.221516105302874911, -5.875370637095268300 ) ) ;
#173 = PRODUCT_RELATED_PRODUCT_CATEGORY ( 'part', '', ( #106 ) ) ;
#174 = CARTESIAN_POINT ( 'NONE',  ( 5.763299380756327750, -1.986972716985101917, 5.661509474216045668 ) ) ;
#175 = APPLICATION_CONTEXT ( 'automotive_design' ) ;
#176 = SHAPE_DEFINITION_REPRESENTATION ( #125, #312 ) ;
#177 = CARTESIAN_POINT ( 'NONE',  ( 7.500000000000008882, 5.421010862427522170E-17, 6.000000000000002665 ) ) ;
#178 = CLOSED_SHELL ( 'NONE', ( #156, #320, #316, #184, #278, #9, #209, #231 ) ) ;
#179 =( LENGTH_UNIT ( ) NAMED_UNIT ( * ) SI_UNIT ( .MILLI., .METRE. ) );
#180 = CARTESIAN_POINT ( 'NONE',  ( 4.488404242454719473, 1.745271979882817126, 5.741544207925434407 ) ) ;
#181 = CARTESIAN_POINT ( 'NONE',  ( 6.730440375147365373, 1.597885448045709200, 5.786391917076067593 ) ) ;
#182 = PRODUCT_DEFINITION ( 'UNKNOWN', '', #208, #218 ) ;
#183 = CARTESIAN_POINT ( 'NONE',  ( 3.499895010714262789, 0.2615395899050729778, 6.000034996426078848 ) ) ;
#184 = ADVANCED_FACE ( 'NONE', ( #21, #317 ), #290, .F. ) ;
#185 = CARTESIAN_POINT ( 'NONE',  ( 36.50000000000000711, 0.000000000000000000, 0.000000000000000000 ) ) ;
#186 = CIRCLE ( 'NONE', #128, 7.000000000000006217 ) ;
#187 = CARTESIAN_POINT ( 'NONE',  ( 3.911482682720856197, 1.222099303196796605, -5.875249392293443229 ) ) ;
#188 = CARTESIAN_POINT ( 'NONE',  ( 0.000000000000000000, 0.000000000000000000, 0.000000000000000000 ) ) ;
#189 = DIRECTION ( 'NONE',  ( 1.000000000000000000, 0.000000000000000000, 0.000000000000000000 ) ) ;
#190 = CARTESIAN_POINT ( 'NONE',  ( 4.610463951849481212, 1.796131642253072203, -5.725097237054209032 ) ) ;
#191 = PRODUCT_CONTEXT ( 'NONE', #175, 'mechanical' ) ;
#192 = CARTESIAN_POINT ( 'NONE',  ( 4.977888273212714765, -1.935080626499934509, -5.679454788893231409 ) ) ;
#193 = ORIENTED_EDGE ( 'NONE', *, *, #300, .T. ) ;
#194 = CARTESIAN_POINT ( 'NONE',  ( 36.50000000000000711, 0.000000000000000000, 8.500000000000001776 ) ) ;
#195 = DIRECTION ( 'NONE',  ( -1.000000000000000000, -0.000000000000000000, -0.000000000000000000 ) ) ;
#196 = ORIENTED_EDGE ( 'NONE', *, *, #303, .T. ) ;
#197 = CARTESIAN_POINT ( 'NONE',  ( 38.00000000000000711, 0.000000000000000000, 0.000000000000000000 ) ) ;
#198 = CIRCLE ( 'NONE', #207, 4.500000000000005329 ) ;
#199 = CARTESIAN_POINT ( 'NONE',  ( 6.509186423930064080, -1.746306335040984870, -5.741211322261797534 ) ) ;
#200 = EDGE_LOOP ( 'NONE', ( #27 ) ) ;
#201 = CARTESIAN_POINT ( 'NONE',  ( 6.730594376309759319, -1.597705364247402171, 5.786432247724127009 ) ) ;
#202 = CARTESIAN_POINT ( 'NONE',  ( 7.089491420560611878, 1.220834293754859301, 5.875513733641011704 ) ) ;
#203 = MECHANICAL_DESIGN_GEOMETRIC_PRESENTATION_REPRESENTATION (  '', ( #97 ), #221 ) ;
#204 = DIRECTION ( 'NONE',  ( 0.000000000000000000, 0.000000000000000000, 1.000000000000000000 ) ) ;
#205 = CARTESIAN_POINT ( 'NONE',  ( 4.852958642862336802, 1.897014113617890629, 5.692465502448547099 ) ) ;
#206 =( NAMED_UNIT ( * ) SI_UNIT ( $, .STERADIAN. ) SOLID_ANGLE_UNIT ( ) );
#207 = AXIS2_PLACEMENT_3D ( 'NONE', #38, #56, #123 ) ;
#208 = PRODUCT_DEFINITION_FORMATION_WITH_SPECIFIED_SOURCE ( 'ANY', '', #106, .NOT_KNOWN. ) ;
#209 = ADVANCED_FACE ( 'NONE', ( #132 ), #42, .F. ) ;
#210 = CARTESIAN_POINT ( 'NONE',  ( 6.147937164283445277, 1.896625475588840537, 5.692590370035004455 ) ) ;
#211 = CARTESIAN_POINT ( 'NONE',  ( 7.500000000000007994, 0.1331554747843276820, -6.000000000000001776 ) ) ;
#212 = CARTESIAN_POINT ( 'NONE',  ( 7.486836486607476360, 0.2639033490118382064, -5.995575825653401303 ) ) ;
#213 = VERTEX_POINT ( 'NONE', #263 ) ;
#214 = CARTESIAN_POINT ( 'NONE',  ( 3.565204938273411006, 0.5234513961886764211, -5.978530582059971898 ) ) ;
#215 = DIRECTION ( 'NONE',  ( -0.000000000000000000, 0.000000000000000000, 1.000000000000000000 ) ) ;
#216 = VERTEX_POINT ( 'NONE', #135 ) ;
#217 = CYLINDRICAL_SURFACE ( 'NONE', #292, 6.000000000000000888 ) ;
#218 = PRODUCT_DEFINITION_CONTEXT ( 'detailed design', #279, 'design' ) ;
#219 = CIRCLE ( 'NONE', #140, 8.500000000000001776 ) ;
#220 = CARTESIAN_POINT ( 'NONE',  ( 3.552885797923471589, -0.5263928004518690917, -5.981818434031924703 ) ) ;
#221 =( GEOMETRIC_REPRESENTATION_CONTEXT ( 3 ) GLOBAL_UNCERTAINTY_ASSIGNED_CONTEXT ( ( #25 ) ) GLOBAL_UNIT_ASSIGNED_CONTEXT ( ( #179, #249, #72 ) ) REPRESENTATION_CONTEXT ( 'NONE', 'WORKASPACE' ) );
#222 = CARTESIAN_POINT ( 'NONE',  ( 5.234585679963925209, -1.986628532218333909, -5.661629695159657416 ) ) ;
#223 = CARTESIAN_POINT ( 'NONE',  ( 7.234225729261710924, -1.004722823144662991, 5.916307102267759355 ) ) ;
#224 = FACE_OUTER_BOUND ( 'NONE', #164, .T. ) ;
#225 = CARTESIAN_POINT ( 'NONE',  ( 7.396479301864746780, -0.6484788379136059433, -5.966099132590461984 ) ) ;
#226 = CARTESIAN_POINT ( 'NONE',  ( 7.295746753613325808, -0.8901964707900200668, 5.934847296002590866 ) ) ;
#227 = SURFACE_STYLE_USAGE ( .BOTH. , #117 ) ;
#228 = CARTESIAN_POINT ( 'NONE',  ( 3.500052735620204469, 0.1319722357661348433, -5.999982421461185211 ) ) ;
#229 = CARTESIAN_POINT ( 'NONE',  ( 1.499999999999999556, 0.000000000000000000, 0.000000000000000000 ) ) ;
#230 = ORIENTED_EDGE ( 'NONE', *, *, #18, .T. ) ;
#231 = ADVANCED_FACE ( 'NONE', ( #108, #260 ), #84, .F. ) ;
#232 = PLANE ( 'NONE',  #62 ) ;
#233 = CARTESIAN_POINT ( 'NONE',  ( 7.500000000000008882, 5.421010862427522170E-17, 6.000000000000002665 ) ) ;
#234 =( NAMED_UNIT ( * ) PLANE_ANGLE_UNIT ( ) SI_UNIT ( $, .RADIAN. ) );
#235 = AXIS2_PLACEMENT_3D ( 'NONE', #6, #171, #305 ) ;
#236 = DIRECTION ( 'NONE',  ( -1.000000000000000000, 0.000000000000000000, -0.000000000000000000 ) ) ;
#237 = FACE_OUTER_BOUND ( 'NONE', #244, .T. ) ;
#238 = CARTESIAN_POINT ( 'NONE',  ( 5.369888794154905831, 2.000091161925000804, -5.656822018893532977 ) ) ;
#239 = CARTESIAN_POINT ( 'NONE',  ( 7.396509808497585325, 0.6483877744006693034, -5.966108905935596951 ) ) ;
#240 =( NAMED_UNIT ( * ) PLANE_ANGLE_UNIT ( ) SI_UNIT ( $, .RADIAN. ) );
#241 = CARTESIAN_POINT ( 'NONE',  ( 6.509186397556166348, 1.746209203716011515, -5.741237610664247981 ) ) ;
#242 = VERTEX_POINT ( 'NONE', #44 ) ;
#243 = FACE_OUTER_BOUND ( 'NONE', #146, .T. ) ;
#244 = EDGE_LOOP ( 'NONE', ( #245 ) ) ;
#245 = ORIENTED_EDGE ( 'NONE', *, *, #165, .T. ) ;
#246 = CARTESIAN_POINT ( 'NONE',  ( 3.993275932419206420, -1.321681097398636373, -5.853391493940652168 ) ) ;
#247 = EDGE_LOOP ( 'NONE', ( #193 ) ) ;
#248 = ORIENTED_EDGE ( 'NONE', *, *, #165, .F. ) ;
#249 =( NAMED_UNIT ( * ) PLANE_ANGLE_UNIT ( ) SI_UNIT ( $, .RADIAN. ) );
#250 = CARTESIAN_POINT ( 'NONE',  ( 4.978963561364603940, -1.935390990121356847, 5.679348875832658905 ) ) ;
#251 = CARTESIAN_POINT ( 'NONE',  ( 7.295696557186566622, 0.8902990621872464150, 5.934832031573172628 ) ) ;
#252 = CARTESIAN_POINT ( 'NONE',  ( 5.762164732749054608, 1.987117945956035747, 5.661458031085127907 ) ) ;
#253 = CIRCLE ( 'NONE', #265, 8.500000000000003553 ) ;
#254 = CARTESIAN_POINT ( 'NONE',  ( 3.703424879200846842, 0.8884838824646796862, 5.935099550986777217 ) ) ;
#255 = FACE_OUTER_BOUND ( 'NONE', #33, .T. ) ;
#256 = SURFACE_STYLE_USAGE ( .BOTH. , #35 ) ;
#257 = DIRECTION ( 'NONE',  ( -1.000000000000000000, -0.000000000000000000, -0.000000000000000000 ) ) ;
#258 = CARTESIAN_POINT ( 'NONE',  ( 4.270303529868326287, 1.598774514288298532, 5.786194921595080309 ) ) ;
#259 = AXIS2_PLACEMENT_3D ( 'NONE', #15, #257, #152 ) ;
#260 = FACE_OUTER_BOUND ( 'NONE', #31, .T. ) ;
#261 = VERTEX_POINT ( 'NONE', #310 ) ;
#262 = CARTESIAN_POINT ( 'NONE',  ( 7.005285961887270929, 1.323204598855622249, -5.853032951955676744 ) ) ;
#263 = CARTESIAN_POINT ( 'NONE',  ( 7.500000000000007105, -2.407412430484044816E-32, -6.000000000000000888 ) ) ;
#264 = FACE_BOUND ( 'NONE', #247, .T. ) ;
#265 = AXIS2_PLACEMENT_3D ( 'NONE', #281, #307, #204 ) ;
#266 =( GEOMETRIC_REPRESENTATION_CONTEXT ( 3 ) GLOBAL_UNCERTAINTY_ASSIGNED_CONTEXT ( ( #138 ) ) GLOBAL_UNIT_ASSIGNED_CONTEXT ( ( #22, #240, #68 ) ) REPRESENTATION_CONTEXT ( 'NONE', 'WORKASPACE' ) );
#267 = CARTESIAN_POINT ( 'NONE',  ( 7.500000000000008882, -5.421010862427522170E-17, -6.000000000000002665 ) ) ;
#268 = EDGE_CURVE ( 'NONE', #64, #64, #219, .T. ) ;
#269 = CARTESIAN_POINT ( 'NONE',  ( 3.993647623109752409, 1.322060469484170886, -5.853300469267279205 ) ) ;
#270 = DIRECTION ( 'NONE',  ( -1.000000000000000000, -0.000000000000000000, -0.000000000000000000 ) ) ;
#271 = ORIENTED_EDGE ( 'NONE', *, *, #300, .F. ) ;
#272 = DIRECTION ( 'NONE',  ( 0.000000000000000000, 0.000000000000000000, 1.000000000000000000 ) ) ;
#273 = ORIENTED_EDGE ( 'NONE', *, *, #18, .F. ) ;
#274 = DIRECTION ( 'NONE',  ( 0.000000000000000000, 0.000000000000000000, 1.000000000000000000 ) ) ;
#275 = EDGE_LOOP ( 'NONE', ( #149 ) ) ;
#276 = CARTESIAN_POINT ( 'NONE',  ( 5.632898858583441637, -1.999907866698910075, 5.656886823524491348 ) ) ;
#277 = CARTESIAN_POINT ( 'NONE',  ( 5.236292779252639029, -1.986875878547647689, 5.661542738627884042 ) ) ;
#278 = ADVANCED_FACE ( 'NONE', ( #161, #264, #41, #237 ), #217, .T. ) ;
#279 = APPLICATION_CONTEXT ( 'automotive_design' ) ;
#280 = CARTESIAN_POINT ( 'NONE',  ( 3.911036666986108301, 1.221516105302874911, 5.875370637095268300 ) ) ;
#281 = CARTESIAN_POINT ( 'NONE',  ( 35.00000000000000000, 0.000000000000000000, 0.000000000000000000 ) ) ;
#282 = CARTESIAN_POINT ( 'NONE',  ( 3.552885797923471589, 0.5263928004518690917, 5.981818434031924703 ) ) ;
#283 = MECHANICAL_DESIGN_GEOMETRIC_PRESENTATION_REPRESENTATION (  '', ( #80 ), #32 ) ;
#284 = CARTESIAN_POINT ( 'NONE',  ( 3.603486032481512780, -0.6482624151756810615, 5.966112188287907792 ) ) ;
#285 = CARTESIAN_POINT ( 'NONE',  ( 4.495143702082088133, -1.734099221172235916, 5.744435912051455873 ) ) ;
#286 = CARTESIAN_POINT ( 'NONE',  ( 4.853806021728090059, 1.897312994660367291, -5.692365997572657932 ) ) ;
#287 = AXIS2_PLACEMENT_3D ( 'NONE', #67, #83, #130 ) ;
#288 = CARTESIAN_POINT ( 'NONE',  ( 3.766590847567969025, 1.006084829641461287, -5.916069256194004922 ) ) ;
#289 = DIRECTION ( 'NONE',  ( -1.000000000000000000, -0.000000000000000000, -0.000000000000000000 ) ) ;
#290 = PLANE ( 'NONE',  #160 ) ;
#291 = CARTESIAN_POINT ( 'NONE',  ( -1.841572700620160951E-16, 0.000000000000000000, 4.500000000000005329 ) ) ;
#292 = AXIS2_PLACEMENT_3D ( 'NONE', #188, #289, #43 ) ;
#293 = COLOUR_RGB ( '',0.7764705882352941346, 0.7568627450980391913, 0.7372549019607843590 ) ;
#294 = DIRECTION ( 'NONE',  ( 0.000000000000000000, 0.000000000000000000, -1.000000000000000000 ) ) ;
#295 = CARTESIAN_POINT ( 'NONE',  ( 7.295696557186566622, -0.8902990621872464150, -5.934832031573172628 ) ) ;
#296 = CARTESIAN_POINT ( 'NONE',  ( 6.021889177444241348, -1.935205112750687961, 5.679412934121341294 ) ) ;
#297 = CARTESIAN_POINT ( 'NONE',  ( 5.368025973940299345, -1.999989150514403624, -5.656858085364785182 ) ) ;
#298 = ORIENTED_EDGE ( 'NONE', *, *, #75, .F. ) ;
#299 = PRESENTATION_STYLE_ASSIGNMENT (( #227 ) ) ;
#300 = EDGE_CURVE ( 'NONE', #213, #213, #110, .T. ) ;
#301 = ORIENTED_EDGE ( 'NONE', *, *, #268, .T. ) ;
#302 = ORIENTED_EDGE ( 'NONE', *, *, #268, .F. ) ;
#303 = EDGE_CURVE ( 'NONE', #216, #216, #57, .T. ) ;
#304 = CARTESIAN_POINT ( 'NONE',  ( 5.369888794154905831, -2.000091161925000804, 5.656822018893532977 ) ) ;
#305 = DIRECTION ( 'NONE',  ( 1.000000000000000000, 0.000000000000000000, 0.000000000000000000 ) ) ;
#306 = PRESENTATION_LAYER_ASSIGNMENT (  '', '', ( #80 ) ) ;
#307 = DIRECTION ( 'NONE',  ( -1.000000000000000000, -0.000000000000000000, -0.000000000000000000 ) ) ;
#308 = PRESENTATION_LAYER_ASSIGNMENT (  '', '', ( #97 ) ) ;
#309 = SURFACE_STYLE_FILL_AREA ( #48 ) ;
#310 = CARTESIAN_POINT ( 'NONE',  ( 38.00000000000000711, 0.000000000000000000, 7.000000000000006217 ) ) ;
#311 = CARTESIAN_POINT ( 'NONE',  ( 7.234231897006853096, 1.004668640024029225, 5.916311260470016542 ) ) ;
#312 = ADVANCED_BREP_SHAPE_REPRESENTATION ( '76.04.02.0006', ( #101, #235 ), #266 ) ;
#313 = CARTESIAN_POINT ( 'NONE',  ( 3.993275932419206420, 1.321681097398636373, 5.853391493940652168 ) ) ;
#314 = CARTESIAN_POINT ( 'NONE',  ( 3.500052735620204469, -0.1319722357661348433, 5.999982421461185211 ) ) ;
#315 = CARTESIAN_POINT ( 'NONE',  ( 7.089069900028459159, 1.221418717805088816, -5.875397347880998211 ) ) ;
#316 = ADVANCED_FACE ( 'NONE', ( #99, #243 ), #49, .T. ) ;
#317 = FACE_OUTER_BOUND ( 'NONE', #200, .T. ) ;
#318 = COLOUR_RGB ( '',0.7764705882352941346, 0.7568627450980391913, 0.7372549019607843590 ) ;
#319 = CARTESIAN_POINT ( 'NONE',  ( 3.513182583331854403, 0.2645559447028005828, -5.995568316425109678 ) ) ;
#320 = ADVANCED_FACE ( 'NONE', ( #255, #81 ), #98, .T. ) ;
#321 = CARTESIAN_POINT ( 'NONE',  ( 35.00000000000000000, 8.500000000000003553, 0.000000000000000000 ) ) ;
#322 = CARTESIAN_POINT ( 'NONE',  ( 5.632898858583441637, 1.999907866698910075, -5.656886823524491348 ) ) ;
ENDSEC;
END-ISO-10303-21;
