ISO-10303-21;
HEADER;
FILE_DESCRIPTION (( 'STEP AP214' ),
    '1' );
FILE_NAME ('76.04.02.0005.step',
    '2021-04-02T18:00:08',
    ( '' ),
    ( '' ),
    'SwSTEP 2.0',
    'SolidWorks 2021',
    '' );
FILE_SCHEMA (( 'AUTOMOTIVE_DESIGN' ));
ENDSEC;

DATA;
#1 = AXIS2_PLACEMENT_3D ( 'NONE', #139, #264, #195 ) ;
#2 = CARTESIAN_POINT ( 'NONE',  ( 4.394271170286605965, -1.599981910608651026, -4.737093822808320809 ) ) ;
#3 = PRESENTATION_STYLE_ASSIGNMENT (( #27 ) ) ;
#4 = ORIENTED_EDGE ( 'NONE', *, *, #64, .F. ) ;
#5 = CARTESIAN_POINT ( 'NONE',  ( 3.294500965124597336, -1.057204497118341635, -4.887542372218232956 ) ) ;
#6 = EDGE_LOOP ( 'NONE', ( #4 ) ) ;
#7 = ADVANCED_FACE ( 'NONE', ( #203, #300 ), #68, .F. ) ;
#8 = SURFACE_SIDE_STYLE ('',( #308 ) ) ;
#9 =( LENGTH_UNIT ( ) NAMED_UNIT ( * ) SI_UNIT ( .MILLI., .METRE. ) );
#10 = ORIENTED_EDGE ( 'NONE', *, *, #245, .F. ) ;
#11 =( LENGTH_UNIT ( ) NAMED_UNIT ( * ) SI_UNIT ( .MILLI., .METRE. ) );
#12 = CARTESIAN_POINT ( 'NONE',  ( 3.113206633933879974, -0.8047538401928571172, 4.935593457058645050 ) ) ;
#13 = CARTESIAN_POINT ( 'NONE',  ( 30.00000000000000000, 0.000000000000000000, 7.000000000000001776 ) ) ;
#14 = PRODUCT_DEFINITION_SHAPE ( 'NONE', 'NONE',  #144 ) ;
#15 = CARTESIAN_POINT ( 'NONE',  ( 3.691374501153253274, -1.396614222770661717, 4.801732458908710477 ) ) ;
#16 = EDGE_CURVE ( 'NONE', #318, #318, #151, .T. ) ;
#17 = CARTESIAN_POINT ( 'NONE',  ( 2.899913538215947106, 0.2091004783840758052, 5.000027667768780049 ) ) ;
#18 = DIRECTION ( 'NONE',  ( 0.000000000000000000, 0.000000000000000000, -1.000000000000000000 ) ) ;
#19 = CARTESIAN_POINT ( 'NONE',  ( 4.394271170286605965, 1.599981910608651026, 4.737093822808320809 ) ) ;
#20 = CARTESIAN_POINT ( 'NONE',  ( 4.289156324175791291, 1.589514670147680553, -4.740665858514914177 ) ) ;
#21 = CARTESIAN_POINT ( 'NONE',  ( 6.017292160468755036, -0.5184643352351209211, 4.974002005271689342 ) ) ;
#22 = DIRECTION ( 'NONE',  ( -1.000000000000000000, -0.000000000000000000, -0.000000000000000000 ) ) ;
#23 = DIRECTION ( 'NONE',  ( -1.000000000000000000, -0.000000000000000000, -0.000000000000000000 ) ) ;
#24 = VERTEX_POINT ( 'NONE', #291 ) ;
#25 = CARTESIAN_POINT ( 'NONE',  ( 1.499999999999999556, 0.000000000000000000, 0.000000000000000000 ) ) ;
#26 = PRODUCT_DEFINITION_CONTEXT ( 'detailed design', #35, 'design' ) ;
#27 = SURFACE_STYLE_USAGE ( .BOTH. , #124 ) ;
#28 = SURFACE_STYLE_FILL_AREA ( #246 ) ;
#29 = CIRCLE ( 'NONE', #130, 7.000000000000001776 ) ;
#30 = CARTESIAN_POINT ( 'NONE',  ( 5.771486265951716099, -0.9768205802846798846, -4.904443078797954492 ) ) ;
#31 = VERTEX_POINT ( 'NONE', #252 ) ;
#32 = CARTESIAN_POINT ( 'NONE',  ( 4.287683528830541491, -1.589300441376832795, -4.740737794717341025 ) ) ;
#33 = CARTESIAN_POINT ( 'NONE',  ( 6.048398716803445652, -0.4164570910027821093, 4.983689229185110925 ) ) ;
#34 = CARTESIAN_POINT ( 'NONE',  ( 4.606230517863103557, -1.599927408048192223, 4.737112231601239287 ) ) ;
#35 = APPLICATION_CONTEXT ( 'automotive_design' ) ;
#36 = CARTESIAN_POINT ( 'NONE',  ( 5.018896343895980827, -1.517096310676901316, 4.764469806433504928 ) ) ;
#37 = APPLICATION_PROTOCOL_DEFINITION ( 'draft international standard', 'automotive_design', 1998, #35 ) ;
#38 = CARTESIAN_POINT ( 'NONE',  ( 3.228699494468174169, 0.9770515933240230266, 4.904395295079966743 ) ) ;
#39 = CARTESIAN_POINT ( 'NONE',  ( 3.294863709375627003, 1.057597712406928236, -4.887454760458924241 ) ) ;
#40 = FACE_OUTER_BOUND ( 'NONE', #248, .T. ) ;
#41 = COLOUR_RGB ( '',0.7764705882352941346, 0.7568627450980391913, 0.7372549019607843590 ) ;
#42 = CARTESIAN_POINT ( 'NONE',  ( 30.00000000000000000, 0.000000000000000000, 0.000000000000000000 ) ) ;
#43 = CARTESIAN_POINT ( 'NONE',  ( 6.100000000000000533, -8.809142651444723526E-17, 5.000000000000000888 ) ) ;
#44 = DIRECTION ( 'NONE',  ( 0.000000000000000000, 0.000000000000000000, 1.000000000000000000 ) ) ;
#45 = CARTESIAN_POINT ( 'NONE',  ( 28.99999999999999645, 0.000000000000000000, 7.000000000000001776 ) ) ;
#46 = CARTESIAN_POINT ( 'NONE',  ( 5.887500759911080905, 0.8035730104243322680, -4.935791073625398262 ) ) ;
#47 =( GEOMETRIC_REPRESENTATION_CONTEXT ( 3 ) GLOBAL_UNCERTAINTY_ASSIGNED_CONTEXT ( ( #256 ) ) GLOBAL_UNIT_ASSIGNED_CONTEXT ( ( #9, #122, #198 ) ) REPRESENTATION_CONTEXT ( 'NONE', 'WORKASPACE' ) );
#48 = CARTESIAN_POINT ( 'NONE',  ( 4.709534619576107417, -1.589711517697346643, -4.740599893489441996 ) ) ;
#49 = CARTESIAN_POINT ( 'NONE',  ( 3.690483084190255170, -1.396116313793227759, -4.801880093366744262 ) ) ;
#50 = CARTESIAN_POINT ( 'NONE',  ( 3.229103786318485270, 0.9775721955539335983, -4.904290378754618374 ) ) ;
#51 = EDGE_LOOP ( 'NONE', ( #10 ) ) ;
#52 = AXIS2_PLACEMENT_3D ( 'NONE', #244, #123, #79 ) ;
#53 = DIRECTION ( 'NONE',  ( -1.000000000000000000, -0.000000000000000000, -0.000000000000000000 ) ) ;
#54 = CARTESIAN_POINT ( 'NONE',  ( 31.00000000000000000, 0.000000000000000000, 6.000000000000003553 ) ) ;
#55 = FACE_BOUND ( 'NONE', #161, .T. ) ;
#56 = EDGE_LOOP ( 'NONE', ( #184 ) ) ;
#57 = CARTESIAN_POINT ( 'NONE',  ( 5.307176393628817657, -1.397070075508275000, 4.801584135810098353 ) ) ;
#58 = CARTESIAN_POINT ( 'NONE',  ( 3.294863709375627003, -1.057597712406928236, 4.887454760458924241 ) ) ;
#59 = CIRCLE ( 'NONE', #165, 5.000000000000001776 ) ;
#60 = EDGE_LOOP ( 'NONE', ( #154 ) ) ;
#61 = CARTESIAN_POINT ( 'NONE',  ( 3.690483084190255170, 1.396116313793227759, 4.801880093366744262 ) ) ;
#62 = CARTESIAN_POINT ( 'NONE',  ( 3.983263501142017660, 1.517921279877725960, -4.764211000957057962 ) ) ;
#63 = DIRECTION ( 'NONE',  ( 1.000000000000000000, 0.000000000000000000, 0.000000000000000000 ) ) ;
#64 = EDGE_CURVE ( 'NONE', #24, #24, #59, .T. ) ;
#65 = FACE_OUTER_BOUND ( 'NONE', #100, .T. ) ;
#66 = AXIS2_PLACEMENT_3D ( 'NONE', #82, #258, #235 ) ;
#67 = CARTESIAN_POINT ( 'NONE',  ( -9.207863503100804757E-17, 3.500000000000003997, 0.000000000000000000 ) ) ;
#68 = PLANE ( 'NONE',  #191 ) ;
#69 = CARTESIAN_POINT ( 'NONE',  ( 4.916065015030602225, 1.548540399721004768, 4.754207893023148834 ) ) ;
#70 = VERTEX_POINT ( 'NONE', #45 ) ;
#71 = EDGE_CURVE ( 'NONE', #70, #70, #29, .T. ) ;
#72 = CARTESIAN_POINT ( 'NONE',  ( 4.917352774793741332, 1.548205747987535963, -4.754317405039898858 ) ) ;
#73 = CARTESIAN_POINT ( 'NONE',  ( 5.307054745911875315, -1.397217800205094562, -4.801543308040442604 ) ) ;
#74 = CIRCLE ( 'NONE', #254, 6.000000000000003553 ) ;
#75 = CARTESIAN_POINT ( 'NONE',  ( 5.484218626127617568, -1.278411476494968113, -4.836147196397736714 ) ) ;
#76 = EDGE_CURVE ( 'NONE', #274, #274, #313, .T. ) ;
#77 = CARTESIAN_POINT ( 'NONE',  ( 28.99999999999999645, 0.000000000000000000, 0.000000000000000000 ) ) ;
#78 = ORIENTED_EDGE ( 'NONE', *, *, #294, .F. ) ;
#79 = DIRECTION ( 'NONE',  ( 0.000000000000000000, 0.000000000000000000, 1.000000000000000000 ) ) ;
#80 = PRODUCT_DEFINITION_FORMATION_WITH_SPECIFIED_SOURCE ( 'ANY', '', #231, .NOT_KNOWN. ) ;
#81 =( NAMED_UNIT ( * ) SI_UNIT ( $, .STERADIAN. ) SOLID_ANGLE_UNIT ( ) );
#82 = CARTESIAN_POINT ( 'NONE',  ( 0.000000000000000000, 0.000000000000000000, 0.000000000000000000 ) ) ;
#83 = EDGE_LOOP ( 'NONE', ( #180 ) ) ;
#84 = CARTESIAN_POINT ( 'NONE',  ( 5.887500759911080905, -0.8035730104243322680, 4.935791073625398262 ) ) ;
#85 = CARTESIAN_POINT ( 'NONE',  ( 3.516010339754370939, 1.278828149432289507, 4.836073378273226808 ) ) ;
#86 = CARTESIAN_POINT ( 'NONE',  ( 4.395967551705655119, 1.600071837028311128, -4.737063449243500202 ) ) ;
#87 = CARTESIAN_POINT ( 'NONE',  ( 5.771380929598380227, -0.9769741417713152520, 4.904414810339023489 ) ) ;
#88 = CARTESIAN_POINT ( 'NONE',  ( 1.499999999999999556, 0.000000000000000000, 0.000000000000000000 ) ) ;
#89 = CARTESIAN_POINT ( 'NONE',  ( 5.484218626127617568, 1.278411476494968113, 4.836147196397736714 ) ) ;
#90 = FACE_OUTER_BOUND ( 'NONE', #282, .T. ) ;
#91 = PLANE ( 'NONE',  #1 ) ;
#92 = CARTESIAN_POINT ( 'NONE',  ( 6.017292160468755036, 0.5184643352351209211, -4.974002005271689342 ) ) ;
#93 = DIRECTION ( 'NONE',  ( 0.000000000000000000, 0.000000000000000000, 1.000000000000000000 ) ) ;
#94 = CARTESIAN_POINT ( 'NONE',  ( 6.100000000000000533, 8.809142651444723526E-17, -5.000000000000000888 ) ) ;
#95 = CLOSED_SHELL ( 'NONE', ( #312, #189, #220, #7, #268, #167, #283, #111 ) ) ;
#96 = CARTESIAN_POINT ( 'NONE',  ( 6.017132676048076334, 0.5189085906167438811, 4.973953507013995967 ) ) ;
#97 = CARTESIAN_POINT ( 'NONE',  ( 4.605180623664971051, -1.600018042433559273, -4.737081618913771663 ) ) ;
#98 = AXIS2_PLACEMENT_3D ( 'NONE', #216, #310, #314 ) ;
#99 = CARTESIAN_POINT ( 'NONE',  ( 3.062911089477190707, 0.7111038461901143526, -4.950127167846448906 ) ) ;
#100 = EDGE_LOOP ( 'NONE', ( #108 ) ) ;
#101 = CARTESIAN_POINT ( 'NONE',  ( 5.018004077861285772, -1.517419029584870849, -4.764367578042565832 ) ) ;
#102 = EDGE_LOOP ( 'NONE', ( #303 ) ) ;
#103 = CARTESIAN_POINT ( 'NONE',  ( 3.112824074934162244, -0.8041005809600070275, -4.935701093271283924 ) ) ;
#104 = MANIFOLD_SOLID_BREP ( 'Cut-Extrude1', #95 ) ;
#105 = MECHANICAL_DESIGN_GEOMETRIC_PRESENTATION_REPRESENTATION (  '', ( #196 ), #47 ) ;
#106 = CARTESIAN_POINT ( 'NONE',  ( 3.294500965124597336, 1.057204497118341635, 4.887542372218232956 ) ) ;
#107 = FACE_OUTER_BOUND ( 'NONE', #83, .T. ) ;
#108 = ORIENTED_EDGE ( 'NONE', *, *, #76, .T. ) ;
#109 = VERTEX_POINT ( 'NONE', #179 ) ;
#110 = FACE_OUTER_BOUND ( 'NONE', #250, .T. ) ;
#111 = ADVANCED_FACE ( 'NONE', ( #186, #229 ), #199, .F. ) ;
#112 = CARTESIAN_POINT ( 'NONE',  ( 4.606230517863103557, 1.599927408048192223, -4.737112231601239287 ) ) ;
#113 = CARTESIAN_POINT ( 'NONE',  ( 4.082454086211050104, 1.548098700590048837, 4.754351811178198162 ) ) ;
#114 = CARTESIAN_POINT ( 'NONE',  ( 6.099999999999999645, -0.1064568721275318819, 5.000000000000000000 ) ) ;
#115 = CARTESIAN_POINT ( 'NONE',  ( 4.605180623664971051, 1.600018042433559273, 4.737081618913771663 ) ) ;
#116 = ADVANCED_BREP_SHAPE_REPRESENTATION ( '76.04.02.0005', ( #104, #98 ), #307 ) ;
#117 = CARTESIAN_POINT ( 'NONE',  ( 4.709534619576107417, 1.589711517697346643, 4.740599893489441996 ) ) ;
#118 = AXIS2_PLACEMENT_3D ( 'NONE', #67, #168, #261 ) ;
#119 = CARTESIAN_POINT ( 'NONE',  ( 5.307054745911875315, 1.397217800205094562, 4.801543308040442604 ) ) ;
#120 = CARTESIAN_POINT ( 'NONE',  ( 31.00000000000000000, 0.000000000000000000, 0.000000000000000000 ) ) ;
#121 = CARTESIAN_POINT ( 'NONE',  ( 5.018004077861285772, 1.517419029584870849, 4.764367578042565832 ) ) ;
#122 =( NAMED_UNIT ( * ) PLANE_ANGLE_UNIT ( ) SI_UNIT ( $, .RADIAN. ) );
#123 = DIRECTION ( 'NONE',  ( -1.000000000000000000, -0.000000000000000000, -0.000000000000000000 ) ) ;
#124 = SURFACE_SIDE_STYLE ('',( #28 ) ) ;
#125 = CIRCLE ( 'NONE', #281, 4.999999999999999112 ) ;
#126 = CARTESIAN_POINT ( 'NONE',  ( 5.704302147398458089, -1.058495106074707648, -4.887254036013562342 ) ) ;
#127 = ORIENTED_EDGE ( 'NONE', *, *, #317, .F. ) ;
#128 = CARTESIAN_POINT ( 'NONE',  ( 6.048322318164369271, -0.4167683636793793611, -4.983665363227496314 ) ) ;
#129 = CARTESIAN_POINT ( 'NONE',  ( 3.062911089477190707, -0.7111038461901143526, 4.950127167846448906 ) ) ;
#130 = AXIS2_PLACEMENT_3D ( 'NONE', #202, #53, #299 ) ;
#131 = CARTESIAN_POINT ( 'NONE',  ( 4.289156324175791291, -1.589514670147680553, 4.740665858514914177 ) ) ;
#132 = UNCERTAINTY_MEASURE_WITH_UNIT (LENGTH_MEASURE( 1.000000000000000082E-05 ), #279, 'distance_accuracy_value', 'NONE');
#133 = CARTESIAN_POINT ( 'NONE',  ( 5.704306479626001014, -1.058481340895581102, 4.887256080036163297 ) ) ;
#134 = SURFACE_STYLE_USAGE ( .BOTH. , #8 ) ;
#135 = CARTESIAN_POINT ( 'NONE',  ( 3.982475004905551064, 1.517656904279730989, 4.764295941592002315 ) ) ;
#136 = CARTESIAN_POINT ( 'NONE',  ( 28.99999999999999645, 7.000000000000001776, 0.000000000000000000 ) ) ;
#137 = AXIS2_PLACEMENT_3D ( 'NONE', #162, #309, #260 ) ;
#138 = DIRECTION ( 'NONE',  ( 0.000000000000000000, 0.000000000000000000, 1.000000000000000000 ) ) ;
#139 = CARTESIAN_POINT ( 'NONE',  ( 31.00000000000000000, 0.000000000000000000, 0.000000000000000000 ) ) ;
#140 = DIRECTION ( 'NONE',  ( 0.000000000000000000, 0.000000000000000000, 1.000000000000000000 ) ) ;
#141 = SHAPE_DEFINITION_REPRESENTATION ( #14, #116 ) ;
#142 = DIRECTION ( 'NONE',  ( 0.000000000000000000, 0.000000000000000000, 1.000000000000000000 ) ) ;
#143 = FACE_OUTER_BOUND ( 'NONE', #178, .T. ) ;
#144 = PRODUCT_DEFINITION ( 'UNKNOWN', '', #80, #26 ) ;
#145 = CARTESIAN_POINT ( 'NONE',  ( 5.771380929598380227, 0.9769741417713152520, -4.904414810339023489 ) ) ;
#146 = CARTESIAN_POINT ( 'NONE',  ( 5.887430960420487303, -0.8036735037552400485, -4.935772407495974790 ) ) ;
#147 = DIRECTION ( 'NONE',  ( -1.000000000000000000, -0.000000000000000000, -0.000000000000000000 ) ) ;
#148 = DIRECTION ( 'NONE',  ( 0.000000000000000000, 0.000000000000000000, 1.000000000000000000 ) ) ;
#149 = EDGE_LOOP ( 'NONE', ( #226 ) ) ;
#150 =( NAMED_UNIT ( * ) PLANE_ANGLE_UNIT ( ) SI_UNIT ( $, .RADIAN. ) );
#151 = B_SPLINE_CURVE_WITH_KNOTS ( 'NONE', 3,
 ( #94, #171, #197, #169, #92, #241, #46, #145, #242, #292, #233, #285, #72, #266, #112, #86, #20, #213, #62, #163, #259, #39, #50, #223, #99, #224, #301, #275, #152, #293, #296, #247, #103, #249, #5, #176, #49, #200, #173, #32, #2, #97, #48, #243, #101, #73, #75, #126, #30, #146, #267, #225, #128, #297, #270, #269 ),
 .UNSPECIFIED., .T., .F.,
 ( 4, 2, 2, 2, 2, 2, 2, 2, 2, 2, 2, 2, 2, 2, 2, 2, 2, 2, 2, 2, 2, 2, 2, 2, 2, 2, 2, 4 ),
 ( 0.000000000000000000, 0.0003146881725221890055, 0.0006293763450443780110, 0.0009440645175665671792, 0.001258752690088756456, 0.001888129035133135659, 0.002202817207655325370, 0.002517505380177515080, 0.002832193552699704357, 0.003146881725221894067, 0.003776258070266273054, 0.004090946242788461897, 0.004405634415310650739, 0.004720322587832839582, 0.005035010760355028425, 0.005664387105399406978, 0.005979075277921595821, 0.006293763450443784664, 0.006923139795488161483, 0.007237827968010349458, 0.007552516140532538301, 0.007867204313054725409, 0.008181892485576913385, 0.008811268830621291070, 0.009125957003143479046, 0.009440645175665668756, 0.009755333348187856732, 0.01007002152071004644 ),
 .UNSPECIFIED. ) ;
#152 = CARTESIAN_POINT ( 'NONE',  ( 2.900043435418092397, 0.1055410596049274619, -4.999986100667269895 ) ) ;
#153 = CARTESIAN_POINT ( 'NONE',  ( 4.083355271313154233, -1.548360136501588658, 4.754266563456073236 ) ) ;
#154 = ORIENTED_EDGE ( 'NONE', *, *, #16, .T. ) ;
#155 = CARTESIAN_POINT ( 'NONE',  ( -1.841572700620160951E-16, 0.000000000000000000, 3.500000000000003997 ) ) ;
#156 = CARTESIAN_POINT ( 'NONE',  ( 6.089482303838160249, -0.2110002384605000891, 4.996606222338497716 ) ) ;
#157 = EDGE_LOOP ( 'NONE', ( #255 ) ) ;
#158 = AXIS2_PLACEMENT_3D ( 'NONE', #42, #22, #44 ) ;
#159 =( NAMED_UNIT ( * ) PLANE_ANGLE_UNIT ( ) SI_UNIT ( $, .RADIAN. ) );
#160 = CARTESIAN_POINT ( 'NONE',  ( 2.900043435418092397, -0.1055410596049274619, 4.999986100667269895 ) ) ;
#161 = EDGE_LOOP ( 'NONE', ( #201 ) ) ;
#162 = CARTESIAN_POINT ( 'NONE',  ( 4.499999999999999112, 4.814824860968089633E-32, -7.000000000000001776 ) ) ;
#163 = CARTESIAN_POINT ( 'NONE',  ( 3.691374501153253274, 1.396614222770661717, -4.801732458908710477 ) ) ;
#164 = FACE_OUTER_BOUND ( 'NONE', #278, .T. ) ;
#165 = AXIS2_PLACEMENT_3D ( 'NONE', #77, #147, #148 ) ;
#166 = CARTESIAN_POINT ( 'NONE',  ( 6.100000000000001421, 0.1064568721275317015, 5.000000000000000888 ) ) ;
#167 = ADVANCED_FACE ( 'NONE', ( #277, #40 ), #238, .T. ) ;
#168 = DIRECTION ( 'NONE',  ( 1.000000000000000000, 0.000000000000000000, 0.000000000000000000 ) ) ;
#169 = CARTESIAN_POINT ( 'NONE',  ( 6.048398716803445652, 0.4164570910027821093, -4.983689229185110925 ) ) ;
#170 = STYLED_ITEM ( 'NONE', ( #271 ), #116 ) ;
#171 = CARTESIAN_POINT ( 'NONE',  ( 6.099999999999999645, 0.1064568721275318819, -5.000000000000000000 ) ) ;
#172 = DIRECTION ( 'NONE',  ( 1.000000000000000000, 0.000000000000000000, 0.000000000000000000 ) ) ;
#173 = CARTESIAN_POINT ( 'NONE',  ( 4.082454086211050104, -1.548098700590048837, -4.754351811178198162 ) ) ;
#174 = CONICAL_SURFACE ( 'NONE', #222, 6.000000000000003553, 0.7853981633974471688 ) ;
#175 = FILL_AREA_STYLE_COLOUR ( '', #205 ) ;
#176 = CARTESIAN_POINT ( 'NONE',  ( 3.516010339754370939, -1.278828149432289507, -4.836073378273226808 ) ) ;
#177 = EDGE_LOOP ( 'NONE', ( #127 ) ) ;
#178 = EDGE_LOOP ( 'NONE', ( #207 ) ) ;
#179 = CARTESIAN_POINT ( 'NONE',  ( 1.499999999999999556, 0.000000000000000000, 4.999999999999999112 ) ) ;
#180 = ORIENTED_EDGE ( 'NONE', *, *, #294, .T. ) ;
#181 = CARTESIAN_POINT ( 'NONE',  ( 5.936709577323874498, -0.7119314275663003455, 4.950015642177405084 ) ) ;
#182 = APPLICATION_PROTOCOL_DEFINITION ( 'draft international standard', 'automotive_design', 1998, #302 ) ;
#183 = DIRECTION ( 'NONE',  ( -1.000000000000000000, -0.000000000000000000, -0.000000000000000000 ) ) ;
#184 = ORIENTED_EDGE ( 'NONE', *, *, #76, .F. ) ;
#185 = AXIS2_PLACEMENT_3D ( 'NONE', #88, #63, #206 ) ;
#186 = FACE_OUTER_BOUND ( 'NONE', #149, .T. ) ;
#187 = CARTESIAN_POINT ( 'NONE',  ( 2.952116927792507450, -0.4185597827194367793, 4.983528150331256512 ) ) ;
#188 = CYLINDRICAL_SURFACE ( 'NONE', #66, 7.000000000000001776 ) ;
#189 = ADVANCED_FACE ( 'NONE', ( #110, #55 ), #174, .T. ) ;
#190 = B_SPLINE_CURVE_WITH_KNOTS ( 'NONE', 3,
 ( #304, #114, #156, #33, #21, #181, #84, #87, #133, #253, #57, #36, #280, #215, #34, #217, #131, #153, #311, #15, #251, #58, #209, #12, #129, #230, #187, #228, #160, #17, #212, #286, #306, #38, #106, #85, #61, #135, #113, #232, #19, #115, #117, #69, #121, #119, #89, #316, #236, #218, #240, #96, #265, #194, #166, #43 ),
 .UNSPECIFIED., .T., .F.,
 ( 4, 2, 2, 2, 2, 2, 2, 2, 2, 2, 2, 2, 2, 2, 2, 2, 2, 2, 2, 2, 2, 2, 2, 2, 2, 2, 2, 4 ),
 ( 0.000000000000000000, 0.0003146881725221890055, 0.0006293763450443780110, 0.0009440645175665671792, 0.001258752690088756456, 0.001888129035133135659, 0.002202817207655325370, 0.002517505380177515080, 0.002832193552699704357, 0.003146881725221894067, 0.003776258070266273054, 0.004090946242788461897, 0.004405634415310650739, 0.004720322587832839582, 0.005035010760355028425, 0.005664387105399406978, 0.005979075277921595821, 0.006293763450443784664, 0.006923139795488161483, 0.007237827968010349458, 0.007552516140532538301, 0.007867204313054725409, 0.008181892485576913385, 0.008811268830621291070, 0.009125957003143479046, 0.009440645175665668756, 0.009755333348187856732, 0.01007002152071004644 ),
 .UNSPECIFIED. ) ;
#191 = AXIS2_PLACEMENT_3D ( 'NONE', #136, #172, #18 ) ;
#192 = FACE_BOUND ( 'NONE', #157, .T. ) ;
#193 = CARTESIAN_POINT ( 'NONE',  ( 0.000000000000000000, 0.000000000000000000, 0.000000000000000000 ) ) ;
#194 = CARTESIAN_POINT ( 'NONE',  ( 6.089475706034878755, 0.2111038839405535161, 4.996603993892516193 ) ) ;
#195 = DIRECTION ( 'NONE',  ( -0.000000000000000000, 0.000000000000000000, 1.000000000000000000 ) ) ;
#196 = STYLED_ITEM ( 'NONE', ( #3 ), #104 ) ;
#197 = CARTESIAN_POINT ( 'NONE',  ( 6.089482303838160249, 0.2110002384605000891, -4.996606222338497716 ) ) ;
#198 =( NAMED_UNIT ( * ) SI_UNIT ( $, .STERADIAN. ) SOLID_ANGLE_UNIT ( ) );
#199 = CYLINDRICAL_SURFACE ( 'NONE', #137, 1.600000000000000755 ) ;
#200 = CARTESIAN_POINT ( 'NONE',  ( 3.982475004905551064, -1.517656904279730989, -4.764295941592002315 ) ) ;
#201 = ORIENTED_EDGE ( 'NONE', *, *, #276, .T. ) ;
#202 = CARTESIAN_POINT ( 'NONE',  ( 28.99999999999999645, 0.000000000000000000, 0.000000000000000000 ) ) ;
#203 = FACE_BOUND ( 'NONE', #6, .T. ) ;
#204 =( NAMED_UNIT ( * ) SI_UNIT ( $, .STERADIAN. ) SOLID_ANGLE_UNIT ( ) );
#205 = COLOUR_RGB ( '',0.7764705882352941346, 0.7568627450980391913, 0.7372549019607843590 ) ;
#206 = DIRECTION ( 'NONE',  ( 0.000000000000000000, 0.000000000000000000, -1.000000000000000000 ) ) ;
#207 = ORIENTED_EDGE ( 'NONE', *, *, #276, .F. ) ;
#208 = VERTEX_POINT ( 'NONE', #54 ) ;
#209 = CARTESIAN_POINT ( 'NONE',  ( 3.229103786318485270, -0.9775721955539335983, 4.904290378754618374 ) ) ;
#210 = ORIENTED_EDGE ( 'NONE', *, *, #71, .F. ) ;
#211 = PRODUCT_CONTEXT ( 'NONE', #302, 'mechanical' ) ;
#212 = CARTESIAN_POINT ( 'NONE',  ( 2.942263883717048945, 0.4208986191467862237, 4.986048383654671845 ) ) ;
#213 = CARTESIAN_POINT ( 'NONE',  ( 4.083355271313154233, 1.548360136501588658, -4.754266563456073236 ) ) ;
#214 = FILL_AREA_STYLE_COLOUR ( '', #41 ) ;
#215 = CARTESIAN_POINT ( 'NONE',  ( 4.710508670967840317, -1.589594437640316826, 4.740639677278789321 ) ) ;
#216 = CARTESIAN_POINT ( 'NONE',  ( 0.000000000000000000, 0.000000000000000000, 0.000000000000000000 ) ) ;
#217 = CARTESIAN_POINT ( 'NONE',  ( 4.395967551705655119, -1.600071837028311128, 4.737063449243500202 ) ) ;
#218 = CARTESIAN_POINT ( 'NONE',  ( 5.887430960420487303, 0.8036735037552400485, 4.935772407495974790 ) ) ;
#219 =( GEOMETRIC_REPRESENTATION_CONTEXT ( 3 ) GLOBAL_UNCERTAINTY_ASSIGNED_CONTEXT ( ( #263 ) ) GLOBAL_UNIT_ASSIGNED_CONTEXT ( ( #11, #150, #81 ) ) REPRESENTATION_CONTEXT ( 'NONE', 'WORKASPACE' ) );
#220 = ADVANCED_FACE ( 'NONE', ( #164, #107 ), #188, .T. ) ;
#221 = DIRECTION ( 'NONE',  ( -1.000000000000000000, -0.000000000000000000, -0.000000000000000000 ) ) ;
#222 = AXIS2_PLACEMENT_3D ( 'NONE', #284, #183, #138 ) ;
#223 = CARTESIAN_POINT ( 'NONE',  ( 3.113206633933879974, 0.8047538401928571172, -4.935593457058645050 ) ) ;
#224 = CARTESIAN_POINT ( 'NONE',  ( 2.982709558483264800, 0.5183849273425720217, -4.974002887516446592 ) ) ;
#225 = CARTESIAN_POINT ( 'NONE',  ( 6.017132676048076334, -0.5189085906167438811, -4.973953507013995967 ) ) ;
#226 = ORIENTED_EDGE ( 'NONE', *, *, #16, .F. ) ;
#227 = FILL_AREA_STYLE ('',( #214 ) ) ;
#228 = CARTESIAN_POINT ( 'NONE',  ( 2.910554614151318553, -0.2116545826127687324, 4.996593585085063793 ) ) ;
#229 = FACE_OUTER_BOUND ( 'NONE', #51, .T. ) ;
#230 = CARTESIAN_POINT ( 'NONE',  ( 2.982709558483264800, -0.5183849273425720217, 4.974002887516446592 ) ) ;
#231 = PRODUCT ( '76.04.02.0005', '76.04.02.0005', '', ( #211 ) ) ;
#232 = CARTESIAN_POINT ( 'NONE',  ( 4.287683528830541491, 1.589300441376832795, 4.740737794717341025 ) ) ;
#233 = CARTESIAN_POINT ( 'NONE',  ( 5.307176393628817657, 1.397070075508275000, -4.801584135810098353 ) ) ;
#234 = MECHANICAL_DESIGN_GEOMETRIC_PRESENTATION_REPRESENTATION (  '', ( #170 ), #219 ) ;
#235 = DIRECTION ( 'NONE',  ( 0.000000000000000000, 0.000000000000000000, 1.000000000000000000 ) ) ;
#236 = CARTESIAN_POINT ( 'NONE',  ( 5.771486265951716099, 0.9768205802846798846, 4.904443078797954492 ) ) ;
#237 = AXIS2_PLACEMENT_3D ( 'NONE', #193, #23, #93 ) ;
#238 = CONICAL_SURFACE ( 'NONE', #185, 4.999999999999999112, 0.7853981633974468357 ) ;
#239 = CARTESIAN_POINT ( 'NONE',  ( 6.099999999999999645, 4.814824860968089633E-32, -5.000000000000000888 ) ) ;
#240 = CARTESIAN_POINT ( 'NONE',  ( 5.936591213280386192, 0.7121540339520981977, 4.949981439084235824 ) ) ;
#241 = CARTESIAN_POINT ( 'NONE',  ( 5.936709577323874498, 0.7119314275663003455, -4.950015642177405084 ) ) ;
#242 = CARTESIAN_POINT ( 'NONE',  ( 5.704306479626001014, 1.058481340895581102, -4.887256080036163297 ) ) ;
#243 = CARTESIAN_POINT ( 'NONE',  ( 4.916065015030602225, -1.548540399721004768, -4.754207893023148834 ) ) ;
#244 = CARTESIAN_POINT ( 'NONE',  ( -1.841572700620160951E-16, 0.000000000000000000, 0.000000000000000000 ) ) ;
#245 = EDGE_CURVE ( 'NONE', #31, #31, #190, .T. ) ;
#246 = FILL_AREA_STYLE ('',( #175 ) ) ;
#247 = CARTESIAN_POINT ( 'NONE',  ( 3.062579770376250288, -0.7104558025390953491, -4.950223336938929464 ) ) ;
#248 = EDGE_LOOP ( 'NONE', ( #273 ) ) ;
#249 = CARTESIAN_POINT ( 'NONE',  ( 3.228699494468174169, -0.9770515933240230266, -4.904395295079966743 ) ) ;
#250 = EDGE_LOOP ( 'NONE', ( #78 ) ) ;
#251 = CARTESIAN_POINT ( 'NONE',  ( 3.515982901837106489, -1.278739985921553579, 4.836086421445450867 ) ) ;
#252 = CARTESIAN_POINT ( 'NONE',  ( 6.099999999999999645, 0.000000000000000000, 5.000000000000000888 ) ) ;
#253 = CARTESIAN_POINT ( 'NONE',  ( 5.484428572657345846, -1.278220547835520415, 4.836193874793403680 ) ) ;
#254 = AXIS2_PLACEMENT_3D ( 'NONE', #120, #289, #140 ) ;
#255 = ORIENTED_EDGE ( 'NONE', *, *, #245, .T. ) ;
#256 = UNCERTAINTY_MEASURE_WITH_UNIT (LENGTH_MEASURE( 1.000000000000000082E-05 ), #9, 'distance_accuracy_value', 'NONE');
#257 = VERTEX_POINT ( 'NONE', #13 ) ;
#258 = DIRECTION ( 'NONE',  ( -1.000000000000000000, -0.000000000000000000, -0.000000000000000000 ) ) ;
#259 = CARTESIAN_POINT ( 'NONE',  ( 3.515982901837106489, 1.278739985921553579, -4.836086421445450867 ) ) ;
#260 = DIRECTION ( 'NONE',  ( 1.000000000000000000, 0.000000000000000000, 0.000000000000000000 ) ) ;
#261 = DIRECTION ( 'NONE',  ( 0.000000000000000000, 0.000000000000000000, -1.000000000000000000 ) ) ;
#262 = CYLINDRICAL_SURFACE ( 'NONE', #237, 5.000000000000000888 ) ;
#263 = UNCERTAINTY_MEASURE_WITH_UNIT (LENGTH_MEASURE( 1.000000000000000082E-05 ), #11, 'distance_accuracy_value', 'NONE');
#264 = DIRECTION ( 'NONE',  ( -1.000000000000000000, 0.000000000000000000, -0.000000000000000000 ) ) ;
#265 = CARTESIAN_POINT ( 'NONE',  ( 6.048322318164369271, 0.4167683636793793611, 4.983665363227496314 ) ) ;
#266 = CARTESIAN_POINT ( 'NONE',  ( 4.710508670967840317, 1.589594437640316826, -4.740639677278789321 ) ) ;
#267 = CARTESIAN_POINT ( 'NONE',  ( 5.936591213280386192, -0.7121540339520981977, -4.949981439084235824 ) ) ;
#268 = ADVANCED_FACE ( 'NONE', ( #192, #287, #315, #90 ), #262, .T. ) ;
#269 = CARTESIAN_POINT ( 'NONE',  ( 6.100000000000000533, 8.809142651444723526E-17, -5.000000000000000888 ) ) ;
#270 = CARTESIAN_POINT ( 'NONE',  ( 6.100000000000001421, -0.1064568721275317015, -5.000000000000000888 ) ) ;
#271 = PRESENTATION_STYLE_ASSIGNMENT (( #134 ) ) ;
#272 = PRESENTATION_LAYER_ASSIGNMENT (  '', '', ( #196 ) ) ;
#273 = ORIENTED_EDGE ( 'NONE', *, *, #317, .T. ) ;
#274 = VERTEX_POINT ( 'NONE', #155 ) ;
#275 = CARTESIAN_POINT ( 'NONE',  ( 2.910554614151318553, 0.2116545826127687324, -4.996593585085063793 ) ) ;
#276 = EDGE_CURVE ( 'NONE', #208, #208, #74, .T. ) ;
#277 = FACE_BOUND ( 'NONE', #56, .T. ) ;
#278 = EDGE_LOOP ( 'NONE', ( #210 ) ) ;
#279 =( LENGTH_UNIT ( ) NAMED_UNIT ( * ) SI_UNIT ( .MILLI., .METRE. ) );
#280 = CARTESIAN_POINT ( 'NONE',  ( 4.917352774793741332, -1.548205747987535963, 4.754317405039898858 ) ) ;
#281 = AXIS2_PLACEMENT_3D ( 'NONE', #25, #221, #142 ) ;
#282 = EDGE_LOOP ( 'NONE', ( #298 ) ) ;
#283 = ADVANCED_FACE ( 'NONE', ( #65 ), #288, .F. ) ;
#284 = CARTESIAN_POINT ( 'NONE',  ( 31.00000000000000000, 0.000000000000000000, 0.000000000000000000 ) ) ;
#285 = CARTESIAN_POINT ( 'NONE',  ( 5.018896343895980827, 1.517096310676901316, -4.764469806433504928 ) ) ;
#286 = CARTESIAN_POINT ( 'NONE',  ( 3.062579770376250288, 0.7104558025390953491, 4.950223336938929464 ) ) ;
#287 = FACE_BOUND ( 'NONE', #60, .T. ) ;
#288 = PLANE ( 'NONE',  #118 ) ;
#289 = DIRECTION ( 'NONE',  ( -1.000000000000000000, -0.000000000000000000, -0.000000000000000000 ) ) ;
#290 = PRESENTATION_LAYER_ASSIGNMENT (  '', '', ( #170 ) ) ;
#291 = CARTESIAN_POINT ( 'NONE',  ( 28.99999999999999645, 0.000000000000000000, 5.000000000000001776 ) ) ;
#292 = CARTESIAN_POINT ( 'NONE',  ( 5.484428572657345846, 1.278220547835520415, -4.836193874793403680 ) ) ;
#293 = CARTESIAN_POINT ( 'NONE',  ( 2.899913538215947106, -0.2091004783840758052, -5.000027667768780049 ) ) ;
#294 = EDGE_CURVE ( 'NONE', #257, #257, #295, .T. ) ;
#295 = CIRCLE ( 'NONE', #158, 7.000000000000001776 ) ;
#296 = CARTESIAN_POINT ( 'NONE',  ( 2.942263883717048945, -0.4208986191467862237, -4.986048383654671845 ) ) ;
#297 = CARTESIAN_POINT ( 'NONE',  ( 6.089475706034878755, -0.2111038839405535161, -4.996603993892516193 ) ) ;
#298 = ORIENTED_EDGE ( 'NONE', *, *, #64, .T. ) ;
#299 = DIRECTION ( 'NONE',  ( 0.000000000000000000, 0.000000000000000000, 1.000000000000000000 ) ) ;
#300 = FACE_OUTER_BOUND ( 'NONE', #102, .T. ) ;
#301 = CARTESIAN_POINT ( 'NONE',  ( 2.952116927792507450, 0.4185597827194367793, -4.983528150331256512 ) ) ;
#302 = APPLICATION_CONTEXT ( 'automotive_design' ) ;
#303 = ORIENTED_EDGE ( 'NONE', *, *, #71, .T. ) ;
#304 = CARTESIAN_POINT ( 'NONE',  ( 6.100000000000000533, -8.809142651444723526E-17, 5.000000000000000888 ) ) ;
#305 = PRODUCT_RELATED_PRODUCT_CATEGORY ( 'part', '', ( #231 ) ) ;
#306 = CARTESIAN_POINT ( 'NONE',  ( 3.112824074934162244, 0.8041005809600070275, 4.935701093271283924 ) ) ;
#307 =( GEOMETRIC_REPRESENTATION_CONTEXT ( 3 ) GLOBAL_UNCERTAINTY_ASSIGNED_CONTEXT ( ( #132 ) ) GLOBAL_UNIT_ASSIGNED_CONTEXT ( ( #279, #159, #204 ) ) REPRESENTATION_CONTEXT ( 'NONE', 'WORKASPACE' ) );
#308 = SURFACE_STYLE_FILL_AREA ( #227 ) ;
#309 = DIRECTION ( 'NONE',  ( -0.000000000000000000, -0.000000000000000000, 1.000000000000000000 ) ) ;
#310 = DIRECTION ( 'NONE',  ( 0.000000000000000000, 0.000000000000000000, 1.000000000000000000 ) ) ;
#311 = CARTESIAN_POINT ( 'NONE',  ( 3.983263501142017660, -1.517921279877725960, 4.764211000957057962 ) ) ;
#312 = ADVANCED_FACE ( 'NONE', ( #143 ), #91, .F. ) ;
#313 = CIRCLE ( 'NONE', #52, 3.500000000000003997 ) ;
#314 = DIRECTION ( 'NONE',  ( 1.000000000000000000, 0.000000000000000000, 0.000000000000000000 ) ) ;
#315 = FACE_OUTER_BOUND ( 'NONE', #177, .T. ) ;
#316 = CARTESIAN_POINT ( 'NONE',  ( 5.704302147398458089, 1.058495106074707648, 4.887254036013562342 ) ) ;
#317 = EDGE_CURVE ( 'NONE', #109, #109, #125, .T. ) ;
#318 = VERTEX_POINT ( 'NONE', #239 ) ;
ENDSEC;
END-ISO-10303-21;
