ISO-10303-21;
HEADER;
FILE_DESCRIPTION (( 'STEP AP214' ),
    '1' );
FILE_NAME ('76.04.01.0009.step',
    '2021-04-02T17:59:49',
    ( '' ),
    ( '' ),
    'SwSTEP 2.0',
    'SolidWorks 2021',
    '' );
FILE_SCHEMA (( 'AUTOMOTIVE_DESIGN' ));
ENDSEC;

DATA;
#1 = DIRECTION ( 'NONE',  ( -1.000000000000000000, -0.000000000000000000, -0.000000000000000000 ) ) ;
#2 = CARTESIAN_POINT ( 'NONE',  ( 6.663841188570455820, -2.500066271258229555, -8.645789070067889881 ) ) ;
#3 = EDGE_LOOP ( 'NONE', ( #230 ) ) ;
#4 = CARTESIAN_POINT ( 'NONE',  ( 4.513078009159744219, -1.526012657668004202, -8.870743291457081625 ) ) ;
#5 = AXIS2_PLACEMENT_3D ( 'NONE', #179, #157, #181 ) ;
#6 = AXIS2_PLACEMENT_3D ( 'NONE', #295, #47, #270 ) ;
#7 = CARTESIAN_POINT ( 'NONE',  ( 53.50000000000000711, 0.000000000000000000, 0.000000000000000000 ) ) ;
#8 = CARTESIAN_POINT ( 'NONE',  ( 4.963422303397544866, 1.998939203598869119, -8.778370922542112709 ) ) ;
#9 = EDGE_LOOP ( 'NONE', ( #56 ) ) ;
#10 = CARTESIAN_POINT ( 'NONE',  ( -3.089190695281089467E-16, 7.500000000000007105, 0.000000000000000000 ) ) ;
#11 = CARTESIAN_POINT ( 'NONE',  ( 5.693552973869068445, 2.372060673078495885, -8.682026224748142340 ) ) ;
#12 = EDGE_LOOP ( 'NONE', ( #152 ) ) ;
#13 = AXIS2_PLACEMENT_3D ( 'NONE', #58, #255, #99 ) ;
#14 = CARTESIAN_POINT ( 'NONE',  ( 8.668495949473287610, -1.254684464227138641, 8.913169779959646988 ) ) ;
#15 = CARTESIAN_POINT ( 'NONE',  ( 4.332805530390626991, -1.256861503835102312, 8.912855042187032950 ) ) ;
#16 =( NAMED_UNIT ( * ) SI_UNIT ( $, .STERADIAN. ) SOLID_ANGLE_UNIT ( ) );
#17 = CARTESIAN_POINT ( 'NONE',  ( 6.828327756759098754, -2.483814844184037973, 8.650536929128568531 ) ) ;
#18 = CARTESIAN_POINT ( 'NONE',  ( 3.999860544569244780, 0.3262261029493234155, 9.000038737616394613 ) ) ;
#19 = ADVANCED_FACE ( 'NONE', ( #81 ), #280, .F. ) ;
#20 = CARTESIAN_POINT ( 'NONE',  ( 50.00000000000000000, 0.000000000000000000, 0.000000000000000000 ) ) ;
#21 = CLOSED_SHELL ( 'NONE', ( #19, #43, #242, #214, #121, #154, #46, #188 ) ) ;
#22 = FACE_OUTER_BOUND ( 'NONE', #78, .T. ) ;
#23 = DIRECTION ( 'NONE',  ( -1.000000000000000000, -0.000000000000000000, -0.000000000000000000 ) ) ;
#24 = CARTESIAN_POINT ( 'NONE',  ( 53.50000000000000711, 0.000000000000000000, 0.000000000000000000 ) ) ;
#25 = DIRECTION ( 'NONE',  ( -1.000000000000000000, -0.000000000000000000, -0.000000000000000000 ) ) ;
#26 = CIRCLE ( 'NONE', #13, 12.50000000000000533 ) ;
#27 = CARTESIAN_POINT ( 'NONE',  ( 4.846439672799685461, 1.882107020431619260, 8.801790520561285192 ) ) ;
#28 = VERTEX_POINT ( 'NONE', #79 ) ;
#29 = CARTESIAN_POINT ( 'NONE',  ( 5.238014394919965788, 2.183004100650049129, -8.732210368083528351 ) ) ;
#30 = SURFACE_STYLE_USAGE ( .BOTH. , #248 ) ;
#31 = EDGE_CURVE ( 'NONE', #28, #28, #160, .T. ) ;
#32 = AXIS2_PLACEMENT_3D ( 'NONE', #187, #292, #90 ) ;
#33 = ORIENTED_EDGE ( 'NONE', *, *, #31, .F. ) ;
#34 = FACE_OUTER_BOUND ( 'NONE', #273, .T. ) ;
#35 = B_SPLINE_CURVE_WITH_KNOTS ( 'NONE', 3,
 ( #68, #189, #293, #67, #164, #71, #271, #135, #269, #240, #267, #50, #318, #194, #137, #119, #139, #244, #11, #29, #8, #175, #277, #74, #52, #200, #105, #57, #151, #207, #144, #245, #125, #4, #226, #122, #142, #228, #272, #222, #309, #247, #102, #2, #77, #98, #195, #100, #202, #172, #299, #302, #54, #274, #75, #276, #88, #82 ),
 .UNSPECIFIED., .T., .F.,
 ( 4, 2, 2, 2, 2, 2, 2, 2, 2, 2, 2, 2, 2, 2, 2, 2, 2, 2, 2, 2, 2, 2, 2, 2, 2, 2, 2, 2, 4 ),
 ( 0.000000000000000000, 0.0004908677315119958084, 0.0009817354630239916169, 0.001472603194535987425, 0.001963470926047983234, 0.002945206389071974851, 0.003436074120583969792, 0.003926941852095964733, 0.004417809583607959674, 0.004908677315119954615, 0.005890412778143946232, 0.006381280509655942040, 0.006872148241167937849, 0.007363015972679933657, 0.007853883704191929466, 0.008835619167215921083, 0.009326486898727916891, 0.009817354630239912699, 0.01030822236175190851, 0.01079909009326390432, 0.01128995782477590012, 0.01178082555628789593, 0.01227169328779989174, 0.01276256101931188755, 0.01374429648233587570, 0.01423516421384786977, 0.01472603194535986385, 0.01521689967687185792, 0.01570776740838385199 ),
 .UNSPECIFIED. ) ;
#36 = EDGE_LOOP ( 'NONE', ( #106 ) ) ;
#37 = EDGE_CURVE ( 'NONE', #256, #256, #26, .T. ) ;
#38 =( NAMED_UNIT ( * ) PLANE_ANGLE_UNIT ( ) SI_UNIT ( $, .RADIAN. ) );
#39 = DIRECTION ( 'NONE',  ( 0.000000000000000000, 0.000000000000000000, 1.000000000000000000 ) ) ;
#40 = VERTEX_POINT ( 'NONE', #279 ) ;
#41 = FACE_OUTER_BOUND ( 'NONE', #201, .T. ) ;
#42 = CARTESIAN_POINT ( 'NONE',  ( 4.616735962498435875, -1.652278367708833073, 8.847816945097573438 ) ) ;
#43 = ADVANCED_FACE ( 'NONE', ( #34, #55 ), #184, .T. ) ;
#44 = CARTESIAN_POINT ( 'NONE',  ( 4.081207486404732521, -0.6530505597464252299, 8.977727370709972732 ) ) ;
#45 = FACE_BOUND ( 'NONE', #224, .T. ) ;
#46 = ADVANCED_FACE ( 'NONE', ( #126 ), #229, .F. ) ;
#47 = DIRECTION ( 'NONE',  ( -1.000000000000000000, -0.000000000000000000, -0.000000000000000000 ) ) ;
#48 = AXIS2_PLACEMENT_3D ( 'NONE', #94, #116, #239 ) ;
#49 = DIRECTION ( 'NONE',  ( 0.000000000000000000, 0.000000000000000000, 1.000000000000000000 ) ) ;
#50 = CARTESIAN_POINT ( 'NONE',  ( 7.309791922083164195, 2.370802223206037063, -8.682365705245853604 ) ) ;
#51 = FACE_BOUND ( 'NONE', #80, .T. ) ;
#52 = CARTESIAN_POINT ( 'NONE',  ( 4.254210000059355679, 1.110441370046238108, -8.932519605269405361 ) ) ;
#53 = FILL_AREA_STYLE ('',( #278 ) ) ;
#54 = CARTESIAN_POINT ( 'NONE',  ( 8.744923646740627277, -1.112176835744644876, -8.932301271193576753 ) ) ;
#55 = FACE_BOUND ( 'NONE', #9, .T. ) ;
#56 = ORIENTED_EDGE ( 'NONE', *, *, #223, .T. ) ;
#57 = CARTESIAN_POINT ( 'NONE',  ( 4.016513641791452649, 0.3306474950784702438, -8.995373033419934217 ) ) ;
#58 = CARTESIAN_POINT ( 'NONE',  ( 52.00000000000000711, 0.000000000000000000, 0.000000000000000000 ) ) ;
#59 = AXIS2_PLACEMENT_3D ( 'NONE', #115, #213, #234 ) ;
#60 =( NAMED_UNIT ( * ) PLANE_ANGLE_UNIT ( ) SI_UNIT ( $, .RADIAN. ) );
#61 =( LENGTH_UNIT ( ) NAMED_UNIT ( * ) SI_UNIT ( .MILLI., .METRE. ) );
#62 = FACE_BOUND ( 'NONE', #127, .T. ) ;
#63 = PRESENTATION_STYLE_ASSIGNMENT (( #287 ) ) ;
#64 = CARTESIAN_POINT ( 'NONE',  ( 6.171094724577137036, -2.483678424454269340, 8.650575302728251259 ) ) ;
#65 = CARTESIAN_POINT ( 'NONE',  ( 6.500000000000004441, -2.407412430484044816E-32, -12.50000000000000533 ) ) ;
#66 = CARTESIAN_POINT ( 'NONE',  ( 8.745352352048460176, -1.111399449270836559, 8.932408104159884843 ) ) ;
#67 = CARTESIAN_POINT ( 'NONE',  ( 8.919610757389422773, 0.6497765341033377995, -8.977948987535132375 ) ) ;
#68 = CARTESIAN_POINT ( 'NONE',  ( 9.000000000000005329, 9.486769009248163798E-17, -9.000000000000001776 ) ) ;
#69 = DIRECTION ( 'NONE',  ( 0.000000000000000000, 0.000000000000000000, 1.000000000000000000 ) ) ;
#70 = AXIS2_PLACEMENT_3D ( 'NONE', #217, #1, #92 ) ;
#71 = CARTESIAN_POINT ( 'NONE',  ( 8.745352352048458400, 1.111399449270837003, -8.932408104159883067 ) ) ;
#72 = CARTESIAN_POINT ( 'NONE',  ( 8.381424554508612346, 1.654245512327451095, 8.847436172760810180 ) ) ;
#73 = FACE_OUTER_BOUND ( 'NONE', #3, .T. ) ;
#74 = CARTESIAN_POINT ( 'NONE',  ( 4.332805530390626103, 1.256861503835100979, -8.912855042187032950 ) ) ;
#75 = CARTESIAN_POINT ( 'NONE',  ( 8.919213947088463712, -0.6514182043922867038, -8.977841405861505919 ) ) ;
#76 = ORIENTED_EDGE ( 'NONE', *, *, #305, .T. ) ;
#77 = CARTESIAN_POINT ( 'NONE',  ( 6.826662857636474513, -2.483985067748402109, -8.650486845580688922 ) ) ;
#78 = EDGE_LOOP ( 'NONE', ( #173 ) ) ;
#79 = CARTESIAN_POINT ( 'NONE',  ( -6.178381390562178934E-16, 0.000000000000000000, 7.500000000000007105 ) ) ;
#80 = EDGE_LOOP ( 'NONE', ( #129 ) ) ;
#81 = FACE_OUTER_BOUND ( 'NONE', #36, .T. ) ;
#82 = CARTESIAN_POINT ( 'NONE',  ( 9.000000000000005329, 9.486769009248163798E-17, -9.000000000000001776 ) ) ;
#83 = CARTESIAN_POINT ( 'NONE',  ( 50.00000000000000000, 0.000000000000000000, 12.50000000000000355 ) ) ;
#84 = CIRCLE ( 'NONE', #266, 11.00000000000001066 ) ;
#85 =( NAMED_UNIT ( * ) SI_UNIT ( $, .STERADIAN. ) SOLID_ANGLE_UNIT ( ) );
#86 = FILL_AREA_STYLE ('',( #209 ) ) ;
#87 = CARTESIAN_POINT ( 'NONE',  ( 9.000000000000007105, -0.1660384539898061562, 9.000000000000003553 ) ) ;
#88 = CARTESIAN_POINT ( 'NONE',  ( 9.000000000000005329, -0.1660384539898051848, -9.000000000000001776 ) ) ;
#89 = CARTESIAN_POINT ( 'NONE',  ( 4.253375785750631799, 1.108732068622122924, 8.932730429593945587 ) ) ;
#90 = DIRECTION ( 'NONE',  ( 1.000000000000000000, 0.000000000000000000, 0.000000000000000000 ) ) ;
#91 = CARTESIAN_POINT ( 'NONE',  ( 8.037925797609057454, -1.997499643256218427, 8.778649771924150969 ) ) ;
#92 = DIRECTION ( 'NONE',  ( 0.000000000000000000, 0.000000000000000000, 1.000000000000000000 ) ) ;
#93 = CARTESIAN_POINT ( 'NONE',  ( 8.983618172187139095, 0.3295186998985074611, 8.995409907960393525 ) ) ;
#94 = CARTESIAN_POINT ( 'NONE',  ( 50.00000000000000000, 12.50000000000000355, 0.000000000000000000 ) ) ;
#95 = CIRCLE ( 'NONE', #199, 12.50000000000000355 ) ;
#96 = CARTESIAN_POINT ( 'NONE',  ( 6.663841188570459373, 2.500066271258230000, 8.645789070067888105 ) ) ;
#97 = CARTESIAN_POINT ( 'NONE',  ( 8.668126479988995214, 1.255371568467874344, 8.913077272313675081 ) ) ;
#98 = CARTESIAN_POINT ( 'NONE',  ( 7.148333116404554488, -2.420031943906817862, -8.668595611333598683 ) ) ;
#99 = DIRECTION ( 'NONE',  ( 0.000000000000000000, 0.000000000000000000, 1.000000000000000000 ) ) ;
#100 = CARTESIAN_POINT ( 'NONE',  ( 7.759927560012848780, -2.183815830373516231, -8.731993127604543048 ) ) ;
#101 = ORIENTED_EDGE ( 'NONE', *, *, #205, .F. ) ;
#102 = CARTESIAN_POINT ( 'NONE',  ( 6.334142590840095011, -2.499933322227208432, -8.645827513269413345 ) ) ;
#103 = DIRECTION ( 'NONE',  ( -0.000000000000000000, 0.000000000000000000, 1.000000000000000000 ) ) ;
#104 = VERTEX_POINT ( 'NONE', #206 ) ;
#105 = CARTESIAN_POINT ( 'NONE',  ( 4.081207486404733409, 0.6530505597464232315, -8.977727370709981614 ) ) ;
#106 = ORIENTED_EDGE ( 'NONE', *, *, #223, .F. ) ;
#107 = FACE_BOUND ( 'NONE', #208, .T. ) ;
#108 = MANIFOLD_SOLID_BREP ( 'Cut-Extrude1', #21 ) ;
#109 = VERTEX_POINT ( 'NONE', #83 ) ;
#110 = CARTESIAN_POINT ( 'NONE',  ( 4.254210000059357455, -1.110441370046239884, 8.932519605269401808 ) ) ;
#111 = SURFACE_SIDE_STYLE ('',( #233 ) ) ;
#112 = CARTESIAN_POINT ( 'NONE',  ( 9.000000000000005329, -6.776263578034402713E-17, 9.000000000000000000 ) ) ;
#113 =( LENGTH_UNIT ( ) NAMED_UNIT ( * ) SI_UNIT ( .MILLI., .METRE. ) );
#114 = CARTESIAN_POINT ( 'NONE',  ( 8.382061065461238414, -1.653526925034779493, 8.847571580321529794 ) ) ;
#115 = CARTESIAN_POINT ( 'NONE',  ( 0.000000000000000000, 0.000000000000000000, 0.000000000000000000 ) ) ;
#116 = DIRECTION ( 'NONE',  ( 1.000000000000000000, 0.000000000000000000, 0.000000000000000000 ) ) ;
#117 = CARTESIAN_POINT ( 'NONE',  ( 5.691583216611718399, 2.371430702786506917, 8.682201305771815925 ) ) ;
#118 = CARTESIAN_POINT ( 'NONE',  ( 5.243653079026575625, 2.167469720581229886, 8.735598886342494040 ) ) ;
#119 = CARTESIAN_POINT ( 'NONE',  ( 6.337685095017276282, 2.500106552801944826, -8.645777422364229636 ) ) ;
#120 = CARTESIAN_POINT ( 'NONE',  ( 5.848300006070121349, 2.419080208949297539, 8.668861776574280142 ) ) ;
#121 = ADVANCED_FACE ( 'NONE', ( #107, #45, #178, #185 ), #176, .T. ) ;
#122 = CARTESIAN_POINT ( 'NONE',  ( 4.846439672799683684, -1.882107020431618816, -8.801790520561285192 ) ) ;
#123 = CARTESIAN_POINT ( 'NONE',  ( 1.499999999999999112, 0.000000000000000000, 0.000000000000000000 ) ) ;
#124 = ORIENTED_EDGE ( 'NONE', *, *, #246, .T. ) ;
#125 = CARTESIAN_POINT ( 'NONE',  ( 4.331735565651627873, -1.255070903091736856, -8.913113833139702180 ) ) ;
#126 = FACE_OUTER_BOUND ( 'NONE', #303, .T. ) ;
#127 = EDGE_LOOP ( 'NONE', ( #33 ) ) ;
#128 = CIRCLE ( 'NONE', #165, 9.000000000000000000 ) ;
#129 = ORIENTED_EDGE ( 'NONE', *, *, #246, .F. ) ;
#130 = DIRECTION ( 'NONE',  ( 1.000000000000000000, 0.000000000000000000, 0.000000000000000000 ) ) ;
#131 = CARTESIAN_POINT ( 'NONE',  ( 50.00000000000000000, 0.000000000000000000, 9.000000000000005329 ) ) ;
#132 = CARTESIAN_POINT ( 'NONE',  ( 8.983624382038120970, -0.3291438750633417509, 8.995412268293362601 ) ) ;
#133 = CARTESIAN_POINT ( 'NONE',  ( 4.016513641791450873, -0.3306474950784704658, 8.995373033419930664 ) ) ;
#134 = CARTESIAN_POINT ( 'NONE',  ( 8.870431903010608465, 0.8109698433676348905, 8.964667937323813618 ) ) ;
#135 = CARTESIAN_POINT ( 'NONE',  ( 8.487074427002635701, 1.525825353442239241, -8.870777058519269787 ) ) ;
#136 = PRODUCT_RELATED_PRODUCT_CATEGORY ( 'part', '', ( #150 ) ) ;
#137 = CARTESIAN_POINT ( 'NONE',  ( 6.665580763029779199, 2.499892380615064802, -8.645839351836754005 ) ) ;
#138 = CARTESIAN_POINT ( 'NONE',  ( 5.386944573688555060, 2.244622215817398736, 8.715846155154602926 ) ) ;
#139 = CARTESIAN_POINT ( 'NONE',  ( 6.171094724577132595, 2.483678424454268896, -8.650575302728253035 ) ) ;
#140 = UNCERTAINTY_MEASURE_WITH_UNIT (LENGTH_MEASURE( 1.000000000000000082E-05 ), #61, 'distance_accuracy_value', 'NONE');
#141 = AXIS2_PLACEMENT_3D ( 'NONE', #153, #301, #39 ) ;
#142 = CARTESIAN_POINT ( 'NONE',  ( 4.973997992445944760, -1.986869509660075916, -8.778437357769769633 ) ) ;
#143 = SURFACE_STYLE_FILL_AREA ( #53 ) ;
#144 = CARTESIAN_POINT ( 'NONE',  ( 4.065843082624993166, -0.6567410005216375302, -8.981120763544637953 ) ) ;
#145 = DIRECTION ( 'NONE',  ( -1.000000000000000000, 0.000000000000000000, -0.000000000000000000 ) ) ;
#146 =( GEOMETRIC_REPRESENTATION_CONTEXT ( 3 ) GLOBAL_UNCERTAINTY_ASSIGNED_CONTEXT ( ( #320 ) ) GLOBAL_UNIT_ASSIGNED_CONTEXT ( ( #238, #60, #85 ) ) REPRESENTATION_CONTEXT ( 'NONE', 'WORKASPACE' ) );
#147 = STYLED_ITEM ( 'NONE', ( #63 ), #149 ) ;
#148 = EDGE_LOOP ( 'NONE', ( #124 ) ) ;
#149 = ADVANCED_BREP_SHAPE_REPRESENTATION ( '76.04.01.0009', ( #108, #32 ), #307 ) ;
#150 = PRODUCT ( '76.04.01.0009', '76.04.01.0009', '', ( #311 ) ) ;
#151 = CARTESIAN_POINT ( 'NONE',  ( 4.000070069234809012, 0.1647134875355269479, -8.999980536325297820 ) ) ;
#152 = ORIENTED_EDGE ( 'NONE', *, *, #268, .F. ) ;
#153 = CARTESIAN_POINT ( 'NONE',  ( 53.50000000000000711, 0.000000000000000000, 0.000000000000000000 ) ) ;
#154 = ADVANCED_FACE ( 'NONE', ( #62, #41 ), #169, .T. ) ;
#155 = COLOUR_RGB ( '',0.8274509803921568096, 0.8392156862745098200, 0.8274509803921568096 ) ;
#156 = STYLED_ITEM ( 'NONE', ( #231 ), #108 ) ;
#157 = DIRECTION ( 'NONE',  ( 1.000000000000000000, 0.000000000000000000, 0.000000000000000000 ) ) ;
#158 = CARTESIAN_POINT ( 'NONE',  ( 5.693552973869068445, -2.372060673078498105, 8.682026224748140564 ) ) ;
#159 = CYLINDRICAL_SURFACE ( 'NONE', #225, 2.500000000000000444 ) ;
#160 = CIRCLE ( 'NONE', #300, 7.500000000000007105 ) ;
#161 = FACE_OUTER_BOUND ( 'NONE', #227, .T. ) ;
#162 = FACE_OUTER_BOUND ( 'NONE', #304, .T. ) ;
#163 = CARTESIAN_POINT ( 'NONE',  ( 7.148333116404556264, 2.420031943906818306, 8.668595611333596906 ) ) ;
#164 = CARTESIAN_POINT ( 'NONE',  ( 8.871143430990507284, 0.8090084983235081850, -8.964855187047978902 ) ) ;
#165 = AXIS2_PLACEMENT_3D ( 'NONE', #123, #23, #69 ) ;
#166 = CARTESIAN_POINT ( 'NONE',  ( 4.513078009159744219, 1.526012657668004868, 8.870743291457085178 ) ) ;
#167 = CARTESIAN_POINT ( 'NONE',  ( 8.486162946613056590, 1.527051720685419944, 8.870570290545233050 ) ) ;
#168 = CARTESIAN_POINT ( 'NONE',  ( 7.307891491832083197, 2.371482362741248018, 8.682180618576646580 ) ) ;
#169 = CONICAL_SURFACE ( 'NONE', #5, 9.000000000000000000, 0.7853981633974459475 ) ;
#170 = ORIENTED_EDGE ( 'NONE', *, *, #205, .T. ) ;
#171 = ORIENTED_EDGE ( 'NONE', *, *, #305, .F. ) ;
#172 = CARTESIAN_POINT ( 'NONE',  ( 8.381424554508614122, -1.654245512327451317, -8.847436172760810180 ) ) ;
#173 = ORIENTED_EDGE ( 'NONE', *, *, #268, .T. ) ;
#174 = PRODUCT_DEFINITION_FORMATION_WITH_SPECIFIED_SOURCE ( 'ANY', '', #150, .NOT_KNOWN. ) ;
#175 = CARTESIAN_POINT ( 'NONE',  ( 4.616735962498434098, 1.652278367708832407, -8.847816945097576991 ) ) ;
#176 = CYLINDRICAL_SURFACE ( 'NONE', #59, 9.000000000000001776 ) ;
#177 = ORIENTED_EDGE ( 'NONE', *, *, #31, .T. ) ;
#178 = FACE_OUTER_BOUND ( 'NONE', #252, .T. ) ;
#179 = CARTESIAN_POINT ( 'NONE',  ( 1.499999999999999112, 0.000000000000000000, 0.000000000000000000 ) ) ;
#180 = APPLICATION_PROTOCOL_DEFINITION ( 'draft international standard', 'automotive_design', 1998, #216 ) ;
#181 = DIRECTION ( 'NONE',  ( 0.000000000000000000, 0.000000000000000000, -1.000000000000000000 ) ) ;
#182 = CARTESIAN_POINT ( 'NONE',  ( 4.331735565651626985, 1.255070903091737300, 8.913113833139702180 ) ) ;
#183 = SHAPE_DEFINITION_REPRESENTATION ( #254, #149 ) ;
#184 = CONICAL_SURFACE ( 'NONE', #141, 11.00000000000001066, 0.7853981633974466137 ) ;
#185 = FACE_OUTER_BOUND ( 'NONE', #148, .T. ) ;
#186 = UNCERTAINTY_MEASURE_WITH_UNIT (LENGTH_MEASURE( 1.000000000000000082E-05 ), #113, 'distance_accuracy_value', 'NONE');
#187 = CARTESIAN_POINT ( 'NONE',  ( 0.000000000000000000, 0.000000000000000000, 0.000000000000000000 ) ) ;
#188 = ADVANCED_FACE ( 'NONE', ( #161, #162 ), #159, .F. ) ;
#189 = CARTESIAN_POINT ( 'NONE',  ( 9.000000000000005329, 0.1660384539898059897, -9.000000000000000000 ) ) ;
#190 = DIRECTION ( 'NONE',  ( 0.000000000000000000, 0.000000000000000000, 1.000000000000000000 ) ) ;
#191 = DIRECTION ( 'NONE',  ( -1.000000000000000000, -0.000000000000000000, -0.000000000000000000 ) ) ;
#192 = MECHANICAL_DESIGN_GEOMETRIC_PRESENTATION_REPRESENTATION (  '', ( #147 ), #198 ) ;
#193 = CARTESIAN_POINT ( 'NONE',  ( 6.826662857636476289, 2.483985067748401221, 8.650486845580683593 ) ) ;
#194 = CARTESIAN_POINT ( 'NONE',  ( 6.828327756759100531, 2.483814844184036641, -8.650536929128568531 ) ) ;
#195 = CARTESIAN_POINT ( 'NONE',  ( 7.307891491832086750, -2.371482362741247574, -8.682180618576643027 ) ) ;
#196 = DIRECTION ( 'NONE',  ( 1.000000000000000000, 0.000000000000000000, 0.000000000000000000 ) ) ;
#197 = PRESENTATION_LAYER_ASSIGNMENT (  '', '', ( #156 ) ) ;
#198 =( GEOMETRIC_REPRESENTATION_CONTEXT ( 3 ) GLOBAL_UNCERTAINTY_ASSIGNED_CONTEXT ( ( #186 ) ) GLOBAL_UNIT_ASSIGNED_CONTEXT ( ( #113, #289, #219 ) ) REPRESENTATION_CONTEXT ( 'NONE', 'WORKASPACE' ) );
#199 = AXIS2_PLACEMENT_3D ( 'NONE', #20, #25, #190 ) ;
#200 = CARTESIAN_POINT ( 'NONE',  ( 4.128868968044390186, 0.8089439964797858762, -8.964853381143040423 ) ) ;
#201 = EDGE_LOOP ( 'NONE', ( #76 ) ) ;
#202 = CARTESIAN_POINT ( 'NONE',  ( 8.037286934118133885, -1.997972762487871146, -8.778537749812583613 ) ) ;
#203 = CARTESIAN_POINT ( 'NONE',  ( -6.178381390562178934E-16, 0.000000000000000000, 0.000000000000000000 ) ) ;
#204 = ORIENTED_EDGE ( 'NONE', *, *, #37, .F. ) ;
#205 = EDGE_CURVE ( 'NONE', #104, #104, #253, .T. ) ;
#206 = CARTESIAN_POINT ( 'NONE',  ( 9.000000000000007105, 0.000000000000000000, 9.000000000000001776 ) ) ;
#207 = CARTESIAN_POINT ( 'NONE',  ( 3.999860544569244780, -0.3262261029493234155, -9.000038737616401718 ) ) ;
#208 = EDGE_LOOP ( 'NONE', ( #170 ) ) ;
#209 = FILL_AREA_STYLE_COLOUR ( '', #316 ) ;
#210 = CARTESIAN_POINT ( 'NONE',  ( 6.337685095017280723, -2.500106552801943938, 8.645777422364229636 ) ) ;
#211 = CARTESIAN_POINT ( 'NONE',  ( 4.513844849421775329, -1.526964448426905374, 8.870573003820087621 ) ) ;
#212 = CARTESIAN_POINT ( 'NONE',  ( 4.065843082624997606, 0.6567410005216370861, 8.981120763544652164 ) ) ;
#213 = DIRECTION ( 'NONE',  ( -1.000000000000000000, -0.000000000000000000, -0.000000000000000000 ) ) ;
#214 = ADVANCED_FACE ( 'NONE', ( #51, #22 ), #220, .F. ) ;
#215 = CARTESIAN_POINT ( 'NONE',  ( 4.615971963863906957, 1.651371233581950371, 8.847983739423268545 ) ) ;
#216 = APPLICATION_CONTEXT ( 'automotive_design' ) ;
#217 = CARTESIAN_POINT ( 'NONE',  ( 50.00000000000000000, 0.000000000000000000, 0.000000000000000000 ) ) ;
#218 = CARTESIAN_POINT ( 'NONE',  ( 6.334142590840099452, 2.499933322227206212, 8.645827513269413345 ) ) ;
#219 =( NAMED_UNIT ( * ) SI_UNIT ( $, .STERADIAN. ) SOLID_ANGLE_UNIT ( ) );
#220 = PLANE ( 'NONE',  #48 ) ;
#221 = CARTESIAN_POINT ( 'NONE',  ( 8.037286934118139214, 1.997972762487872478, 8.778537749812588942 ) ) ;
#222 = CARTESIAN_POINT ( 'NONE',  ( 5.691583216611714846, -2.371430702786506473, -8.682201305771817701 ) ) ;
#223 = EDGE_CURVE ( 'NONE', #308, #308, #84, .T. ) ;
#224 = EDGE_LOOP ( 'NONE', ( #310 ) ) ;
#225 = AXIS2_PLACEMENT_3D ( 'NONE', #65, #263, #130 ) ;
#226 = CARTESIAN_POINT ( 'NONE',  ( 4.615971963863905181, -1.651371233581948816, -8.847983739423266769 ) ) ;
#227 = EDGE_LOOP ( 'NONE', ( #249 ) ) ;
#228 = CARTESIAN_POINT ( 'NONE',  ( 5.243653079026573849, -2.167469720581228998, -8.735598886342495817 ) ) ;
#229 = PLANE ( 'NONE',  #235 ) ;
#230 = ORIENTED_EDGE ( 'NONE', *, *, #37, .T. ) ;
#231 = PRESENTATION_STYLE_ASSIGNMENT (( #30 ) ) ;
#232 = CARTESIAN_POINT ( 'NONE',  ( 4.963422303397543089, -1.998939203598869119, 8.778370922542102051 ) ) ;
#233 = SURFACE_STYLE_FILL_AREA ( #86 ) ;
#234 = DIRECTION ( 'NONE',  ( 0.000000000000000000, 0.000000000000000000, 1.000000000000000000 ) ) ;
#235 = AXIS2_PLACEMENT_3D ( 'NONE', #10, #196, #306 ) ;
#236 = CARTESIAN_POINT ( 'NONE',  ( 1.499999999999999112, 0.000000000000000000, 9.000000000000000000 ) ) ;
#237 = CARTESIAN_POINT ( 'NONE',  ( 4.000070069234809900, -0.1647134875355280581, 8.999980536325292491 ) ) ;
#238 =( LENGTH_UNIT ( ) NAMED_UNIT ( * ) SI_UNIT ( .MILLI., .METRE. ) );
#239 = DIRECTION ( 'NONE',  ( 0.000000000000000000, 0.000000000000000000, -1.000000000000000000 ) ) ;
#240 = CARTESIAN_POINT ( 'NONE',  ( 8.037925797609052125, 1.997499643256218427, -8.778649771924143863 ) ) ;
#241 = CARTESIAN_POINT ( 'NONE',  ( 8.744923646740625500, 1.112176835744644654, 8.932301271193573200 ) ) ;
#242 = ADVANCED_FACE ( 'NONE', ( #322, #73 ), #265, .T. ) ;
#243 = CARTESIAN_POINT ( 'NONE',  ( 8.919213947088460159, 0.6514182043922854826, 8.977841405861500590 ) ) ;
#244 = CARTESIAN_POINT ( 'NONE',  ( 5.849796772781113319, 2.419519158761668898, -8.668739160031112334 ) ) ;
#245 = CARTESIAN_POINT ( 'NONE',  ( 4.253375785750634464, -1.108732068622122924, -8.932730429593947363 ) ) ;
#246 = EDGE_CURVE ( 'NONE', #260, #260, #250, .T. ) ;
#247 = CARTESIAN_POINT ( 'NONE',  ( 6.168493578976350200, -2.483297290345737096, -8.650684835690309882 ) ) ;
#248 = SURFACE_SIDE_STYLE ('',( #143 ) ) ;
#249 = ORIENTED_EDGE ( 'NONE', *, *, #283, .F. ) ;
#250 = CIRCLE ( 'NONE', #70, 9.000000000000005329 ) ;
#251 = DIRECTION ( 'NONE',  ( -1.000000000000000000, -0.000000000000000000, -0.000000000000000000 ) ) ;
#252 = EDGE_LOOP ( 'NONE', ( #171 ) ) ;
#253 = B_SPLINE_CURVE_WITH_KNOTS ( 'NONE', 3,
 ( #112, #87, #132, #282, #315, #66, #14, #314, #114, #91, #288, #291, #264, #17, #286, #210, #64, #257, #158, #259, #232, #42, #211, #15, #110, #261, #44, #133, #237, #18, #212, #89, #182, #166, #215, #27, #298, #118, #138, #117, #120, #296, #218, #96, #193, #163, #168, #294, #221, #72, #167, #97, #241, #134, #243, #93, #321, #317 ),
 .UNSPECIFIED., .T., .F.,
 ( 4, 2, 2, 2, 2, 2, 2, 2, 2, 2, 2, 2, 2, 2, 2, 2, 2, 2, 2, 2, 2, 2, 2, 2, 2, 2, 2, 2, 4 ),
 ( 0.000000000000000000, 0.0004908677315119962421, 0.0009817354630239922674, 0.001472603194535988510, 0.001963470926047984535, 0.002945206389071972249, 0.003436074120583966756, 0.003926941852095962131, 0.004417809583607957939, 0.004908677315119952013, 0.005890412778143946232, 0.006381280509655943775, 0.006872148241167940451, 0.007363015972679937127, 0.007853883704191934670, 0.008835619167215929756, 0.009326486898727925565, 0.009817354630239921373, 0.01030822236175191718, 0.01079909009326391299, 0.01128995782477591053, 0.01178082555628790634, 0.01227169328779990215, 0.01276256101931189969, 0.01374429648233588958, 0.01423516421384788191, 0.01472603194535987425, 0.01521689967687186833, 0.01570776740838385893 ),
 .UNSPECIFIED. ) ;
#254 = PRODUCT_DEFINITION_SHAPE ( 'NONE', 'NONE',  #297 ) ;
#255 = DIRECTION ( 'NONE',  ( -1.000000000000000000, -0.000000000000000000, -0.000000000000000000 ) ) ;
#256 = VERTEX_POINT ( 'NONE', #312 ) ;
#257 = CARTESIAN_POINT ( 'NONE',  ( 5.849796772781111542, -2.419519158761668454, 8.668739160031108781 ) ) ;
#258 = APPLICATION_PROTOCOL_DEFINITION ( 'draft international standard', 'automotive_design', 1998, #319 ) ;
#259 = CARTESIAN_POINT ( 'NONE',  ( 5.238014394919968453, -2.183004100650049129, 8.732210368083523022 ) ) ;
#260 = VERTEX_POINT ( 'NONE', #131 ) ;
#261 = CARTESIAN_POINT ( 'NONE',  ( 4.128868968044390186, -0.8089439964797873195, 8.964853381143038646 ) ) ;
#262 = VERTEX_POINT ( 'NONE', #236 ) ;
#263 = DIRECTION ( 'NONE',  ( -0.000000000000000000, -0.000000000000000000, 1.000000000000000000 ) ) ;
#264 = CARTESIAN_POINT ( 'NONE',  ( 7.151397110011464164, -2.419259618378349685, 8.668812389323575118 ) ) ;
#265 = CYLINDRICAL_SURFACE ( 'NONE', #6, 12.50000000000000355 ) ;
#266 = AXIS2_PLACEMENT_3D ( 'NONE', #24, #191, #49 ) ;
#267 = CARTESIAN_POINT ( 'NONE',  ( 7.760426666483202673, 2.183389377307070500, -8.732097142829703174 ) ) ;
#268 = EDGE_CURVE ( 'NONE', #109, #109, #95, .T. ) ;
#269 = CARTESIAN_POINT ( 'NONE',  ( 8.382061065461233085, 1.653526925034780160, -8.847571580321524465 ) ) ;
#270 = DIRECTION ( 'NONE',  ( 0.000000000000000000, 0.000000000000000000, 1.000000000000000000 ) ) ;
#271 = CARTESIAN_POINT ( 'NONE',  ( 8.668495949473287610, 1.254684464227137974, -8.913169779959648764 ) ) ;
#272 = CARTESIAN_POINT ( 'NONE',  ( 5.386944573688555948, -2.244622215817397848, -8.715846155154608255 ) ) ;
#273 = EDGE_LOOP ( 'NONE', ( #204 ) ) ;
#274 = CARTESIAN_POINT ( 'NONE',  ( 8.870431903010608465, -0.8109698433676366669, -8.964667937323810065 ) ) ;
#275 = DIRECTION ( 'NONE',  ( 0.000000000000000000, 0.000000000000000000, 1.000000000000000000 ) ) ;
#276 = CARTESIAN_POINT ( 'NONE',  ( 8.983618172187142648, -0.3295186998985079052, -8.995409907960395302 ) ) ;
#277 = CARTESIAN_POINT ( 'NONE',  ( 4.513844849421776217, 1.526964448426904042, -8.870573003820091174 ) ) ;
#278 = FILL_AREA_STYLE_COLOUR ( '', #155 ) ;
#279 = CARTESIAN_POINT ( 'NONE',  ( 9.000000000000005329, -2.407412430484044816E-32, -9.000000000000001776 ) ) ;
#280 = PLANE ( 'NONE',  #284 ) ;
#281 = PRODUCT_DEFINITION_CONTEXT ( 'detailed design', #216, 'design' ) ;
#282 = CARTESIAN_POINT ( 'NONE',  ( 8.919610757389419220, -0.6497765341033373554, 8.977948987535130598 ) ) ;
#283 = EDGE_CURVE ( 'NONE', #40, #40, #35, .T. ) ;
#284 = AXIS2_PLACEMENT_3D ( 'NONE', #7, #145, #103 ) ;
#285 = PRESENTATION_LAYER_ASSIGNMENT (  '', '', ( #147 ) ) ;
#286 = CARTESIAN_POINT ( 'NONE',  ( 6.665580763029780087, -2.499892380615064358, 8.645839351836754005 ) ) ;
#287 = SURFACE_STYLE_USAGE ( .BOTH. , #111 ) ;
#288 = CARTESIAN_POINT ( 'NONE',  ( 7.760426666483195568, -2.183389377307072277, 8.732097142829699621 ) ) ;
#289 =( NAMED_UNIT ( * ) PLANE_ANGLE_UNIT ( ) SI_UNIT ( $, .RADIAN. ) );
#290 = MECHANICAL_DESIGN_GEOMETRIC_PRESENTATION_REPRESENTATION (  '', ( #156 ), #146 ) ;
#291 = CARTESIAN_POINT ( 'NONE',  ( 7.309791922083163307, -2.370802223206035730, 8.682365705245848275 ) ) ;
#292 = DIRECTION ( 'NONE',  ( 0.000000000000000000, 0.000000000000000000, 1.000000000000000000 ) ) ;
#293 = CARTESIAN_POINT ( 'NONE',  ( 8.983624382038122747, 0.3291438750633415844, -8.995412268293367930 ) ) ;
#294 = CARTESIAN_POINT ( 'NONE',  ( 7.759927560012846115, 2.183815830373516231, 8.731993127604539495 ) ) ;
#295 = CARTESIAN_POINT ( 'NONE',  ( 0.000000000000000000, 0.000000000000000000, 0.000000000000000000 ) ) ;
#296 = CARTESIAN_POINT ( 'NONE',  ( 6.168493578976348424, 2.483297290345735764, 8.650684835690309882 ) ) ;
#297 = PRODUCT_DEFINITION ( 'UNKNOWN', '', #174, #281 ) ;
#298 = CARTESIAN_POINT ( 'NONE',  ( 4.973997992445943872, 1.986869509660076361, 8.778437357769767857 ) ) ;
#299 = CARTESIAN_POINT ( 'NONE',  ( 8.486162946613054814, -1.527051720685419944, -8.870570290545233050 ) ) ;
#300 = AXIS2_PLACEMENT_3D ( 'NONE', #203, #251, #275 ) ;
#301 = DIRECTION ( 'NONE',  ( -1.000000000000000000, -0.000000000000000000, -0.000000000000000000 ) ) ;
#302 = CARTESIAN_POINT ( 'NONE',  ( 8.668126479988995214, -1.255371568467873455, -8.913077272313675081 ) ) ;
#303 = EDGE_LOOP ( 'NONE', ( #177 ) ) ;
#304 = EDGE_LOOP ( 'NONE', ( #101 ) ) ;
#305 = EDGE_CURVE ( 'NONE', #262, #262, #128, .T. ) ;
#306 = DIRECTION ( 'NONE',  ( 0.000000000000000000, 0.000000000000000000, -1.000000000000000000 ) ) ;
#307 =( GEOMETRIC_REPRESENTATION_CONTEXT ( 3 ) GLOBAL_UNCERTAINTY_ASSIGNED_CONTEXT ( ( #140 ) ) GLOBAL_UNIT_ASSIGNED_CONTEXT ( ( #61, #38, #16 ) ) REPRESENTATION_CONTEXT ( 'NONE', 'WORKASPACE' ) );
#308 = VERTEX_POINT ( 'NONE', #313 ) ;
#309 = CARTESIAN_POINT ( 'NONE',  ( 5.848300006070121349, -2.419080208949296207, -8.668861776574278366 ) ) ;
#310 = ORIENTED_EDGE ( 'NONE', *, *, #283, .T. ) ;
#311 = PRODUCT_CONTEXT ( 'NONE', #319, 'mechanical' ) ;
#312 = CARTESIAN_POINT ( 'NONE',  ( 52.00000000000000711, 0.000000000000000000, 12.50000000000000533 ) ) ;
#313 = CARTESIAN_POINT ( 'NONE',  ( 53.50000000000000711, 0.000000000000000000, 11.00000000000001066 ) ) ;
#314 = CARTESIAN_POINT ( 'NONE',  ( 8.487074427002635701, -1.525825353442239685, 8.870777058519269787 ) ) ;
#315 = CARTESIAN_POINT ( 'NONE',  ( 8.871143430990507284, -0.8090084983235084071, 8.964855187047977125 ) ) ;
#316 = COLOUR_RGB ( '',0.8274509803921568096, 0.8392156862745098200, 0.8274509803921568096 ) ;
#317 = CARTESIAN_POINT ( 'NONE',  ( 9.000000000000005329, -6.776263578034402713E-17, 9.000000000000000000 ) ) ;
#318 = CARTESIAN_POINT ( 'NONE',  ( 7.151397110011457947, 2.419259618378347465, -8.668812389323573342 ) ) ;
#319 = APPLICATION_CONTEXT ( 'automotive_design' ) ;
#320 = UNCERTAINTY_MEASURE_WITH_UNIT (LENGTH_MEASURE( 1.000000000000000082E-05 ), #238, 'distance_accuracy_value', 'NONE');
#321 = CARTESIAN_POINT ( 'NONE',  ( 9.000000000000005329, 0.1660384539898042411, 8.999999999999996447 ) ) ;
#322 = FACE_OUTER_BOUND ( 'NONE', #12, .T. ) ;
ENDSEC;
END-ISO-10303-21;
