ISO-10303-21;
HEADER;
FILE_DESCRIPTION (( 'STEP AP214' ),
    '1' );
FILE_NAME ('76.04.01.0008.step',
    '2021-04-02T17:59:48',
    ( '' ),
    ( '' ),
    'SwSTEP 2.0',
    'SolidWorks 2021',
    '' );
FILE_SCHEMA (( 'AUTOMOTIVE_DESIGN' ));
ENDSEC;

DATA;
#1 = CARTESIAN_POINT ( 'NONE',  ( 8.786926025712789468, -0.2630676426233926612, 7.996703123718819306 ) ) ;
#2 = CARTESIAN_POINT ( 'NONE',  ( 5.791080246480674987, -1.746758766470990043, 7.807659208723350730 ) ) ;
#3 = ADVANCED_FACE ( 'NONE', ( #283, #216, #15, #234 ), #39, .T. ) ;
#4 = CARTESIAN_POINT ( 'NONE',  ( 8.305793685546051464, -1.322669827304608248, 7.890452986384936196 ) ) ;
#5 = MECHANICAL_DESIGN_GEOMETRIC_PRESENTATION_REPRESENTATION (  '', ( #112 ), #127 ) ;
#6 = CARTESIAN_POINT ( 'NONE',  ( 4.799889474043357751, 0.2608004744982262424, 8.000027631486839041 ) ) ;
#7 = CARTESIAN_POINT ( 'NONE',  ( 5.292627136637890750, 1.320920945228129861, 7.890751351475262076 ) ) ;
#8 = DIRECTION ( 'NONE',  ( -0.000000000000000000, -0.000000000000000000, 1.000000000000000000 ) ) ;
#9 = CARTESIAN_POINT ( 'NONE',  ( -6.178381390562178934E-16, 0.000000000000000000, 0.000000000000000000 ) ) ;
#10 = AXIS2_PLACEMENT_3D ( 'NONE', #292, #264, #198 ) ;
#11 = DIRECTION ( 'NONE',  ( -1.000000000000000000, -0.000000000000000000, -0.000000000000000000 ) ) ;
#12 = FACE_OUTER_BOUND ( 'NONE', #162, .T. ) ;
#13 = CARTESIAN_POINT ( 'NONE',  ( 8.786926025712789468, 0.2630676426233926612, -7.996703123718819306 ) ) ;
#14 = CARTESIAN_POINT ( 'NONE',  ( 8.030211477292654720, 1.598142704237302203, -7.840966465082273906 ) ) ;
#15 = FACE_OUTER_BOUND ( 'NONE', #311, .T. ) ;
#16 = VERTEX_POINT ( 'NONE', #81 ) ;
#17 = CARTESIAN_POINT ( 'NONE',  ( 8.735351687604890003, -0.5212390170055394290, -7.984044170917896643 ) ) ;
#18 = AXIS2_PLACEMENT_3D ( 'NONE', #147, #11, #105 ) ;
#19 = CARTESIAN_POINT ( 'NONE',  ( 6.670248399535018358, 2.000082289394082835, -7.745945445389172512 ) ) ;
#20 = CARTESIAN_POINT ( 'NONE',  ( 0.000000000000000000, 0.000000000000000000, 0.000000000000000000 ) ) ;
#21 = DIRECTION ( 'NONE',  ( 1.000000000000000000, 0.000000000000000000, 0.000000000000000000 ) ) ;
#22 = CARTESIAN_POINT ( 'NONE',  ( 8.696373323343484785, -0.6486681265331759594, -7.974575417240541420 ) ) ;
#23 = CARTESIAN_POINT ( 'NONE',  ( 4.813213011944564634, -0.2644367505942603613, 7.996667802653983692 ) ) ;
#24 = AXIS2_PLACEMENT_3D ( 'NONE', #224, #53, #274 ) ;
#25 = CARTESIAN_POINT ( 'NONE',  ( 45.00000000000000000, 0.000000000000000000, 0.000000000000000000 ) ) ;
#26 = CARTESIAN_POINT ( 'NONE',  ( 1.499999999999999112, 0.000000000000000000, 0.000000000000000000 ) ) ;
#27 = CARTESIAN_POINT ( 'NONE',  ( 5.210898111231249352, -1.221342559348626899, 7.906973638967773610 ) ) ;
#28 = AXIS2_PLACEMENT_3D ( 'NONE', #305, #184, #131 ) ;
#29 = CARTESIAN_POINT ( 'NONE',  ( 5.065015314955793713, 1.003437995740827926, 7.937577104716899257 ) ) ;
#30 = PLANE ( 'NONE',  #92 ) ;
#31 = STYLED_ITEM ( 'NONE', ( #88 ), #96 ) ;
#32 = PRESENTATION_STYLE_ASSIGNMENT (( #204 ) ) ;
#33 = DIRECTION ( 'NONE',  ( 0.000000000000000000, 0.000000000000000000, 1.000000000000000000 ) ) ;
#34 = ADVANCED_FACE ( 'NONE', ( #67, #41 ), #134, .T. ) ;
#35 = CARTESIAN_POINT ( 'NONE',  ( 6.930888128050419539, -2.000069065124613132, -7.745948859878972748 ) ) ;
#36 = EDGE_LOOP ( 'NONE', ( #309 ) ) ;
#37 = DIRECTION ( 'NONE',  ( 0.000000000000000000, 0.000000000000000000, 1.000000000000000000 ) ) ;
#38 = CARTESIAN_POINT ( 'NONE',  ( 8.029581783050074861, -1.598596971432013403, -7.840868634871601905 ) ) ;
#39 = CYLINDRICAL_SURFACE ( 'NONE', #28, 8.000000000000001776 ) ;
#40 = CARTESIAN_POINT ( 'NONE',  ( 1.499999999999999112, 0.000000000000000000, 8.000000000000000000 ) ) ;
#41 = FACE_OUTER_BOUND ( 'NONE', #209, .T. ) ;
#42 = CIRCLE ( 'NONE', #18, 10.00000000000000533 ) ;
#43 = EDGE_CURVE ( 'NONE', #161, #161, #98, .T. ) ;
#44 = CARTESIAN_POINT ( 'NONE',  ( 5.002431116384973286, -0.8864286355026947950, -7.951659787253108291 ) ) ;
#45 = ORIENTED_EDGE ( 'NONE', *, *, #49, .T. ) ;
#46 =( NAMED_UNIT ( * ) SI_UNIT ( $, .STERADIAN. ) SOLID_ANGLE_UNIT ( ) );
#47 = CARTESIAN_POINT ( 'NONE',  ( 7.445645835363753129, 1.897418820108304871, 7.771901101503600806 ) ) ;
#48 = CARTESIAN_POINT ( 'NONE',  ( 7.320786906153032625, -1.935494469010187402, 7.762381666036874961 ) ) ;
#49 = EDGE_CURVE ( 'NONE', #268, #268, #139, .T. ) ;
#50 = CARTESIAN_POINT ( 'NONE',  ( 7.807974722533955969, -1.746929224812576287, 7.807610581511102765 ) ) ;
#51 = CARTESIAN_POINT ( 'NONE',  ( 5.571219190703965651, -1.599608796201501759, 7.840706429540704292 ) ) ;
#52 = CARTESIAN_POINT ( 'NONE',  ( 5.476913010139475624, 1.505471989113274178, 7.857629612316067380 ) ) ;
#53 = DIRECTION ( 'NONE',  ( -1.000000000000000000, -0.000000000000000000, -0.000000000000000000 ) ) ;
#54 = PLANE ( 'NONE',  #275 ) ;
#55 = DIRECTION ( 'NONE',  ( 0.000000000000000000, 0.000000000000000000, 1.000000000000000000 ) ) ;
#56 = CLOSED_SHELL ( 'NONE', ( #68, #257, #34, #167, #3, #197, #146, #203 ) ) ;
#57 = FACE_OUTER_BOUND ( 'NONE', #212, .T. ) ;
#58 = DIRECTION ( 'NONE',  ( -1.000000000000000000, -0.000000000000000000, -0.000000000000000000 ) ) ;
#59 = CARTESIAN_POINT ( 'NONE',  ( 8.305793685546051464, 1.322669827304608248, -7.890452986384936196 ) ) ;
#60 = CARTESIAN_POINT ( 'NONE',  ( -6.178381390562178934E-16, 0.000000000000000000, 6.500000000000005329 ) ) ;
#61 = CARTESIAN_POINT ( 'NONE',  ( 5.292627136637890750, -1.320920945228129861, -7.890751351475262076 ) ) ;
#62 = AXIS2_PLACEMENT_3D ( 'NONE', #20, #237, #239 ) ;
#63 = EDGE_LOOP ( 'NONE', ( #181 ) ) ;
#64 = CARTESIAN_POINT ( 'NONE',  ( 7.062388576551843933, 1.987085825042435472, -7.749335319413516387 ) ) ;
#65 = ORIENTED_EDGE ( 'NONE', *, *, #43, .T. ) ;
#66 = CARTESIAN_POINT ( 'NONE',  ( 8.535031877734535755, 1.003346023807034193, -7.937587895696920803 ) ) ;
#67 = FACE_OUTER_BOUND ( 'NONE', #207, .T. ) ;
#68 = ADVANCED_FACE ( 'NONE', ( #101 ), #168, .F. ) ;
#69 = CARTESIAN_POINT ( 'NONE',  ( 5.210898111231249352, 1.221342559348626899, -7.906973638967773610 ) ) ;
#70 = EDGE_LOOP ( 'NONE', ( #117 ) ) ;
#71 = CARTESIAN_POINT ( 'NONE',  ( 8.799999999999997158, 0.1326938576183066543, 8.000000000000005329 ) ) ;
#72 = CARTESIAN_POINT ( 'NONE',  ( 5.210256716546072475, 1.220563788315647491, 7.907100741945479072 ) ) ;
#73 = DIRECTION ( 'NONE',  ( 0.000000000000000000, 0.000000000000000000, 1.000000000000000000 ) ) ;
#74 = CARTESIAN_POINT ( 'NONE',  ( 5.909847954400285985, 1.795824432500143120, 7.796006770207849712 ) ) ;
#75 = CARTESIAN_POINT ( 'NONE',  ( 5.003218177968626890, -0.8880638145298440644, 7.951480708525320296 ) ) ;
#76 = FILL_AREA_STYLE ('',( #78 ) ) ;
#77 = DIRECTION ( 'NONE',  ( -1.000000000000000000, -0.000000000000000000, -0.000000000000000000 ) ) ;
#78 = FILL_AREA_STYLE_COLOUR ( '', #155 ) ;
#79 = CARTESIAN_POINT ( 'NONE',  ( 48.50000000000000000, 0.000000000000000000, 0.000000000000000000 ) ) ;
#80 = CARTESIAN_POINT ( 'NONE',  ( 8.697085019606278777, 0.6467101618175001843, -7.974743786963693459 ) ) ;
#81 = CARTESIAN_POINT ( 'NONE',  ( 47.00000000000000000, 0.000000000000000000, 10.00000000000000533 ) ) ;
#82 = CARTESIAN_POINT ( 'NONE',  ( 5.293284783578028119, 1.321730646216308980, -7.890620032838621789 ) ) ;
#83 = EDGE_LOOP ( 'NONE', ( #279 ) ) ;
#84 = CARTESIAN_POINT ( 'NONE',  ( 6.535070414041910247, -1.999861041126618000, -7.746002571436383377 ) ) ;
#85 = CIRCLE ( 'NONE', #164, 10.00000000000000533 ) ;
#86 = CARTESIAN_POINT ( 'NONE',  ( 0.000000000000000000, 0.000000000000000000, 0.000000000000000000 ) ) ;
#87 = EDGE_LOOP ( 'NONE', ( #166 ) ) ;
#88 = PRESENTATION_STYLE_ASSIGNMENT (( #284 ) ) ;
#89 = CARTESIAN_POINT ( 'NONE',  ( 5.065015314955793713, -1.003437995740827926, -7.937577104716899257 ) ) ;
#90 = SURFACE_STYLE_FILL_AREA ( #154 ) ;
#91 = ORIENTED_EDGE ( 'NONE', *, *, #241, .F. ) ;
#92 = AXIS2_PLACEMENT_3D ( 'NONE', #270, #226, #249 ) ;
#93 = CARTESIAN_POINT ( 'NONE',  ( 8.535031877734535755, -1.003346023807034193, 7.937587895696920803 ) ) ;
#94 = DIRECTION ( 'NONE',  ( -1.000000000000000000, -0.000000000000000000, -0.000000000000000000 ) ) ;
#95 = UNCERTAINTY_MEASURE_WITH_UNIT (LENGTH_MEASURE( 1.000000000000000082E-05 ), #178, 'distance_accuracy_value', 'NONE');
#96 = ADVANCED_BREP_SHAPE_REPRESENTATION ( '76.04.01.0008', ( #215, #235 ), #165 ) ;
#97 = CARTESIAN_POINT ( 'NONE',  ( 5.002431116384973286, 0.8864286355026947950, 7.951659787253108291 ) ) ;
#98 = CIRCLE ( 'NONE', #119, 8.000000000000000000 ) ;
#99 = CARTESIAN_POINT ( 'NONE',  ( 7.317979211385751803, 1.936194592322518337, 7.762206047772254536 ) ) ;
#100 = EDGE_CURVE ( 'NONE', #271, #271, #242, .T. ) ;
#101 = FACE_OUTER_BOUND ( 'NONE', #83, .T. ) ;
#102 = PRODUCT_RELATED_PRODUCT_CATEGORY ( 'part', '', ( #273 ) ) ;
#103 = PRODUCT_DEFINITION_FORMATION_WITH_SPECIFIED_SOURCE ( 'ANY', '', #273, .NOT_KNOWN. ) ;
#104 = FACE_OUTER_BOUND ( 'NONE', #63, .T. ) ;
#105 = DIRECTION ( 'NONE',  ( 0.000000000000000000, 0.000000000000000000, 1.000000000000000000 ) ) ;
#106 = DIRECTION ( 'NONE',  ( -1.000000000000000000, -0.000000000000000000, -0.000000000000000000 ) ) ;
#107 = CARTESIAN_POINT ( 'NONE',  ( 1.499999999999999112, 0.000000000000000000, 0.000000000000000000 ) ) ;
#108 = CARTESIAN_POINT ( 'NONE',  ( 6.932276148705512675, 1.999916913937860308, -7.745988145139289571 ) ) ;
#109 = VERTEX_POINT ( 'NONE', #185 ) ;
#110 = ORIENTED_EDGE ( 'NONE', *, *, #287, .T. ) ;
#111 = CARTESIAN_POINT ( 'NONE',  ( 8.799999999999995381, 4.065758146820641628E-17, -8.000000000000003553 ) ) ;
#112 = STYLED_ITEM ( 'NONE', ( #32 ), #215 ) ;
#113 = SURFACE_SIDE_STYLE ('',( #90 ) ) ;
#114 = CARTESIAN_POINT ( 'NONE',  ( 5.210256716546072475, -1.220563788315647491, -7.907100741945479072 ) ) ;
#115 = ORIENTED_EDGE ( 'NONE', *, *, #192, .F. ) ;
#116 = CARTESIAN_POINT ( 'NONE',  ( 5.476913010139475624, -1.505471989113274178, -7.857629612316067380 ) ) ;
#117 = ORIENTED_EDGE ( 'NONE', *, *, #241, .T. ) ;
#118 = CARTESIAN_POINT ( 'NONE',  ( 7.807551461386198710, 1.747302763448159713, 7.807529231111637102 ) ) ;
#119 = AXIS2_PLACEMENT_3D ( 'NONE', #26, #144, #73 ) ;
#120 = CARTESIAN_POINT ( 'NONE',  ( 8.030211477292654720, -1.598142704237302203, 7.840966465082273906 ) ) ;
#121 = CARTESIAN_POINT ( 'NONE',  ( 8.696373323343484785, 0.6486681265331759594, 7.974575417240541420 ) ) ;
#122 = CARTESIAN_POINT ( 'NONE',  ( 6.155267835212566929, -1.897786012702618264, 7.771813519182110497 ) ) ;
#123 = CARTESIAN_POINT ( 'NONE',  ( 6.930888128050419539, 2.000069065124613132, 7.745948859878972748 ) ) ;
#124 = DIRECTION ( 'NONE',  ( 0.000000000000000000, 0.000000000000000000, 1.000000000000000000 ) ) ;
#125 = CARTESIAN_POINT ( 'NONE',  ( 8.799999999999991829, 0.000000000000000000, 8.000000000000001776 ) ) ;
#126 = CARTESIAN_POINT ( 'NONE',  ( 45.00000000000000000, 10.00000000000000533, 0.000000000000000000 ) ) ;
#127 =( GEOMETRIC_REPRESENTATION_CONTEXT ( 3 ) GLOBAL_UNCERTAINTY_ASSIGNED_CONTEXT ( ( #95 ) ) GLOBAL_UNIT_ASSIGNED_CONTEXT ( ( #178, #148, #128 ) ) REPRESENTATION_CONTEXT ( 'NONE', 'WORKASPACE' ) );
#128 =( NAMED_UNIT ( * ) SI_UNIT ( $, .STERADIAN. ) SOLID_ANGLE_UNIT ( ) );
#129 = DIRECTION ( 'NONE',  ( 1.000000000000000000, 0.000000000000000000, 0.000000000000000000 ) ) ;
#130 = CARTESIAN_POINT ( 'NONE',  ( 8.545959015022969396, -1.009770071519058510, -7.939701385896899666 ) ) ;
#131 = DIRECTION ( 'NONE',  ( 0.000000000000000000, 0.000000000000000000, 1.000000000000000000 ) ) ;
#132 = SHAPE_DEFINITION_REPRESENTATION ( #153, #96 ) ;
#133 = CARTESIAN_POINT ( 'NONE',  ( 5.791080246480674987, 1.746758766470990043, -7.807659208723350730 ) ) ;
#134 = CYLINDRICAL_SURFACE ( 'NONE', #62, 10.00000000000000533 ) ;
#135 = CARTESIAN_POINT ( 'NONE',  ( 5.795215669357679289, -1.734157020499708546, -7.810132171752178998 ) ) ;
#136 = EDGE_LOOP ( 'NONE', ( #187 ) ) ;
#137 = APPLICATION_PROTOCOL_DEFINITION ( 'draft international standard', 'automotive_design', 1998, #313 ) ;
#138 = CARTESIAN_POINT ( 'NONE',  ( 6.535070414041910247, 1.999861041126618000, 7.746002571436383377 ) ) ;
#139 = B_SPLINE_CURVE_WITH_KNOTS ( 'NONE', 3,
 ( #143, #217, #1, #265, #245, #171, #93, #174, #4, #120, #50, #294, #48, #262, #191, #290, #218, #219, #122, #2, #51, #246, #27, #244, #75, #196, #240, #23, #193, #6, #220, #97, #29, #72, #7, #52, #142, #289, #74, #140, #138, #123, #266, #99, #47, #118, #194, #223, #172, #121, #169, #293, #71, #243 ),
 .UNSPECIFIED., .T., .F.,
 ( 4, 2, 2, 2, 2, 2, 2, 2, 2, 2, 2, 2, 2, 2, 2, 2, 2, 2, 2, 2, 2, 2, 2, 2, 2, 2, 4 ),
 ( 0.000000000000000000, 0.0003923156643295058082, 0.0007846313286590118332, 0.001176946992988517912, 0.001569262657318023883, 0.002353893985977036692, 0.002746209650306543314, 0.003138525314636049501, 0.003530840978965555689, 0.003923156643295062744, 0.004707787971954075119, 0.005100103636283582174, 0.005492419300613088362, 0.005884734964942594550, 0.006277050629272099870, 0.007061681957931113113, 0.007453997622260618433, 0.007846313286590125488, 0.008238628950919630808, 0.008630944615249136129, 0.009415575943908145035, 0.009807891608237650355, 0.01020020727256715394, 0.01098483860122616285, 0.01176946992988517175, 0.01216178559421467707, 0.01255410125854418066 ),
 .UNSPECIFIED. ) ;
#140 = CARTESIAN_POINT ( 'NONE',  ( 6.274731165233891517, 1.947695273348126532, 7.759981374729036929 ) ) ;
#141 = AXIS2_PLACEMENT_3D ( 'NONE', #107, #129, #225 ) ;
#142 = CARTESIAN_POINT ( 'NONE',  ( 5.579226401574767458, 1.589529472592653425, 7.840845692126979571 ) ) ;
#143 = CARTESIAN_POINT ( 'NONE',  ( 8.799999999999995381, -4.065758146820641628E-17, 8.000000000000003553 ) ) ;
#144 = DIRECTION ( 'NONE',  ( -1.000000000000000000, -0.000000000000000000, -0.000000000000000000 ) ) ;
#145 = DIRECTION ( 'NONE',  ( 1.000000000000000000, 0.000000000000000000, 0.000000000000000000 ) ) ;
#146 = ADVANCED_FACE ( 'NONE', ( #299 ), #30, .F. ) ;
#147 = CARTESIAN_POINT ( 'NONE',  ( 47.00000000000000000, 0.000000000000000000, 0.000000000000000000 ) ) ;
#148 =( NAMED_UNIT ( * ) PLANE_ANGLE_UNIT ( ) SI_UNIT ( $, .RADIAN. ) );
#149 = CARTESIAN_POINT ( 'NONE',  ( 45.00000000000000000, 0.000000000000000000, 8.000000000000003553 ) ) ;
#150 = CIRCLE ( 'NONE', #291, 6.500000000000005329 ) ;
#151 = SURFACE_SIDE_STYLE ('',( #176 ) ) ;
#152 = EDGE_CURVE ( 'NONE', #250, #250, #301, .T. ) ;
#153 = PRODUCT_DEFINITION_SHAPE ( 'NONE', 'NONE',  #261 ) ;
#154 = FILL_AREA_STYLE ('',( #277 ) ) ;
#155 = COLOUR_RGB ( '',0.8274509803921568096, 0.8392156862745098200, 0.8274509803921568096 ) ;
#156 = CARTESIAN_POINT ( 'NONE',  ( 4.800055531509661577, 0.1316695630743572043, -7.999986117123743412 ) ) ;
#157 = EDGE_LOOP ( 'NONE', ( #159 ) ) ;
#158 = CARTESIAN_POINT ( 'NONE',  ( 7.807974722533955969, 1.746929224812576287, -7.807610581511102765 ) ) ;
#159 = ORIENTED_EDGE ( 'NONE', *, *, #173, .T. ) ;
#160 =( LENGTH_UNIT ( ) NAMED_UNIT ( * ) SI_UNIT ( .MILLI., .METRE. ) );
#161 = VERTEX_POINT ( 'NONE', #40 ) ;
#162 = EDGE_LOOP ( 'NONE', ( #115 ) ) ;
#163 = CARTESIAN_POINT ( 'NONE',  ( 5.003218177968626890, 0.8880638145298440644, -7.951480708525320296 ) ) ;
#164 = AXIS2_PLACEMENT_3D ( 'NONE', #300, #77, #199 ) ;
#165 =( GEOMETRIC_REPRESENTATION_CONTEXT ( 3 ) GLOBAL_UNCERTAINTY_ASSIGNED_CONTEXT ( ( #221 ) ) GLOBAL_UNIT_ASSIGNED_CONTEXT ( ( #160, #179, #46 ) ) REPRESENTATION_CONTEXT ( 'NONE', 'WORKASPACE' ) );
#166 = ORIENTED_EDGE ( 'NONE', *, *, #173, .F. ) ;
#167 = ADVANCED_FACE ( 'NONE', ( #251, #269 ), #54, .F. ) ;
#168 = PLANE ( 'NONE',  #10 ) ;
#169 = CARTESIAN_POINT ( 'NONE',  ( 8.735351687604890003, 0.5212390170055394290, 7.984044170917896643 ) ) ;
#170 = AXIS2_PLACEMENT_3D ( 'NONE', #79, #58, #33 ) ;
#171 = CARTESIAN_POINT ( 'NONE',  ( 8.596503950012493789, -0.8886726971174979672, 7.951417064807503543 ) ) ;
#172 = CARTESIAN_POINT ( 'NONE',  ( 8.545959015022969396, 1.009770071519058510, 7.939701385896899666 ) ) ;
#173 = EDGE_CURVE ( 'NONE', #298, #298, #150, .T. ) ;
#174 = CARTESIAN_POINT ( 'NONE',  ( 8.389898868408904420, -1.220352591867007508, 7.907132501541066283 ) ) ;
#175 = DIRECTION ( 'NONE',  ( 0.000000000000000000, 0.000000000000000000, -1.000000000000000000 ) ) ;
#176 = SURFACE_STYLE_FILL_AREA ( #76 ) ;
#177 = DIRECTION ( 'NONE',  ( 1.000000000000000000, 0.000000000000000000, 0.000000000000000000 ) ) ;
#178 =( LENGTH_UNIT ( ) NAMED_UNIT ( * ) SI_UNIT ( .MILLI., .METRE. ) );
#179 =( NAMED_UNIT ( * ) PLANE_ANGLE_UNIT ( ) SI_UNIT ( $, .RADIAN. ) );
#180 = CARTESIAN_POINT ( 'NONE',  ( 5.066076548552961079, 1.005202429705906120, -7.937347028442240493 ) ) ;
#181 = ORIENTED_EDGE ( 'NONE', *, *, #287, .F. ) ;
#182 = B_SPLINE_CURVE_WITH_KNOTS ( 'NONE', 3,
 ( #205, #227, #13, #302, #80, #228, #66, #304, #59, #14, #158, #285, #211, #64, #108, #19, #206, #303, #208, #133, #282, #82, #69, #180, #163, #254, #183, #236, #156, #280, #278, #44, #89, #114, #61, #116, #233, #135, #310, #255, #84, #35, #231, #186, #214, #188, #38, #238, #130, #22, #17, #308, #259, #111 ),
 .UNSPECIFIED., .T., .F.,
 ( 4, 2, 2, 2, 2, 2, 2, 2, 2, 2, 2, 2, 2, 2, 2, 2, 2, 2, 2, 2, 2, 2, 2, 2, 2, 2, 4 ),
 ( 0.000000000000000000, 0.0003923156643295058082, 0.0007846313286590118332, 0.001176946992988517912, 0.001569262657318023883, 0.002353893985977036692, 0.002746209650306543314, 0.003138525314636049501, 0.003530840978965555689, 0.003923156643295062744, 0.004707787971954075119, 0.005100103636283582174, 0.005492419300613088362, 0.005884734964942594550, 0.006277050629272099870, 0.007061681957931113113, 0.007453997622260618433, 0.007846313286590125488, 0.008238628950919630808, 0.008630944615249136129, 0.009415575943908145035, 0.009807891608237650355, 0.01020020727256715394, 0.01098483860122616285, 0.01176946992988517175, 0.01216178559421467707, 0.01255410125854418066 ),
 .UNSPECIFIED. ) ;
#183 = CARTESIAN_POINT ( 'NONE',  ( 4.864855936035986872, 0.5219835080499038993, -7.983993734866757563 ) ) ;
#184 = DIRECTION ( 'NONE',  ( -1.000000000000000000, -0.000000000000000000, -0.000000000000000000 ) ) ;
#185 = CARTESIAN_POINT ( 'NONE',  ( 45.00000000000000000, 0.000000000000000000, 10.00000000000000533 ) ) ;
#186 = CARTESIAN_POINT ( 'NONE',  ( 7.317979211385751803, -1.936194592322518337, -7.762206047772254536 ) ) ;
#187 = ORIENTED_EDGE ( 'NONE', *, *, #152, .T. ) ;
#188 = CARTESIAN_POINT ( 'NONE',  ( 7.807551461386198710, -1.747302763448159713, -7.807529231111637102 ) ) ;
#189 = ORIENTED_EDGE ( 'NONE', *, *, #192, .T. ) ;
#190 = EDGE_LOOP ( 'NONE', ( #286 ) ) ;
#191 = CARTESIAN_POINT ( 'NONE',  ( 6.932276148705512675, -1.999916913937860308, 7.745988145139289571 ) ) ;
#192 = EDGE_CURVE ( 'NONE', #16, #16, #42, .T. ) ;
#193 = CARTESIAN_POINT ( 'NONE',  ( 4.800055531509661577, -0.1316695630743572043, 7.999986117123743412 ) ) ;
#194 = CARTESIAN_POINT ( 'NONE',  ( 8.029581783050074861, 1.598596971432013403, 7.840868634871601905 ) ) ;
#195 = MECHANICAL_DESIGN_GEOMETRIC_PRESENTATION_REPRESENTATION (  '', ( #31 ), #248 ) ;
#196 = CARTESIAN_POINT ( 'NONE',  ( 4.902923892400390393, -0.6466718616380381368, 7.974742522495203545 ) ) ;
#197 = ADVANCED_FACE ( 'NONE', ( #267, #57 ), #252, .T. ) ;
#198 = DIRECTION ( 'NONE',  ( -0.000000000000000000, 0.000000000000000000, 1.000000000000000000 ) ) ;
#199 = DIRECTION ( 'NONE',  ( 0.000000000000000000, 0.000000000000000000, 1.000000000000000000 ) ) ;
#200 = COLOUR_RGB ( '',0.8274509803921568096, 0.8392156862745098200, 0.8274509803921568096 ) ;
#201 = CYLINDRICAL_SURFACE ( 'NONE', #247, 2.000000000000000000 ) ;
#202 = FACE_BOUND ( 'NONE', #136, .T. ) ;
#203 = ADVANCED_FACE ( 'NONE', ( #104, #276 ), #201, .F. ) ;
#204 = SURFACE_STYLE_USAGE ( .BOTH. , #151 ) ;
#205 = CARTESIAN_POINT ( 'NONE',  ( 8.799999999999995381, 4.065758146820641628E-17, -8.000000000000003553 ) ) ;
#206 = CARTESIAN_POINT ( 'NONE',  ( 6.537119866481361008, 1.986970918883058435, -7.749364203984911548 ) ) ;
#207 = EDGE_LOOP ( 'NONE', ( #91 ) ) ;
#208 = CARTESIAN_POINT ( 'NONE',  ( 6.155267835212566929, 1.897786012702618264, -7.771813519182110497 ) ) ;
#209 = EDGE_LOOP ( 'NONE', ( #189 ) ) ;
#210 =( LENGTH_UNIT ( ) NAMED_UNIT ( * ) SI_UNIT ( .MILLI., .METRE. ) );
#211 = CARTESIAN_POINT ( 'NONE',  ( 7.320786906153032625, 1.935494469010187402, -7.762381666036874961 ) ) ;
#212 = EDGE_LOOP ( 'NONE', ( #65 ) ) ;
#213 = PRODUCT_CONTEXT ( 'NONE', #295, 'mechanical' ) ;
#214 = CARTESIAN_POINT ( 'NONE',  ( 7.445645835363753129, -1.897418820108304871, -7.771901101503600806 ) ) ;
#215 = MANIFOLD_SOLID_BREP ( 'Cut-Extrude1', #56 ) ;
#216 = FACE_BOUND ( 'NONE', #260, .T. ) ;
#217 = CARTESIAN_POINT ( 'NONE',  ( 8.799999999999991829, -0.1326938576183072371, 8.000000000000001776 ) ) ;
#218 = CARTESIAN_POINT ( 'NONE',  ( 6.537119866481361008, -1.986970918883058435, 7.749364203984911548 ) ) ;
#219 = CARTESIAN_POINT ( 'NONE',  ( 6.280196427791076452, -1.935707530440641255, 7.762327959773736907 ) ) ;
#220 = CARTESIAN_POINT ( 'NONE',  ( 4.852587021635680564, 0.5249963432426962839, 7.986424433487821162 ) ) ;
#221 = UNCERTAINTY_MEASURE_WITH_UNIT (LENGTH_MEASURE( 1.000000000000000082E-05 ), #160, 'distance_accuracy_value', 'NONE');
#222 = AXIS2_PLACEMENT_3D ( 'NONE', #25, #94, #124 ) ;
#223 = CARTESIAN_POINT ( 'NONE',  ( 8.396936054072257960, 1.231738152970957234, 7.906804306981455532 ) ) ;
#224 = CARTESIAN_POINT ( 'NONE',  ( 48.50000000000000000, 0.000000000000000000, 0.000000000000000000 ) ) ;
#225 = DIRECTION ( 'NONE',  ( 0.000000000000000000, 0.000000000000000000, -1.000000000000000000 ) ) ;
#226 = DIRECTION ( 'NONE',  ( 1.000000000000000000, 0.000000000000000000, 0.000000000000000000 ) ) ;
#227 = CARTESIAN_POINT ( 'NONE',  ( 8.799999999999991829, 0.1326938576183072371, -8.000000000000001776 ) ) ;
#228 = CARTESIAN_POINT ( 'NONE',  ( 8.596503950012493789, 0.8886726971174979672, -7.951417064807503543 ) ) ;
#229 = ORIENTED_EDGE ( 'NONE', *, *, #100, .T. ) ;
#230 = VERTEX_POINT ( 'NONE', #258 ) ;
#231 = CARTESIAN_POINT ( 'NONE',  ( 7.061063984271864769, -1.987208484000324571, -7.749302850484569127 ) ) ;
#232 = ORIENTED_EDGE ( 'NONE', *, *, #43, .F. ) ;
#233 = CARTESIAN_POINT ( 'NONE',  ( 5.579226401574767458, -1.589529472592653425, -7.840845692126979571 ) ) ;
#234 = FACE_OUTER_BOUND ( 'NONE', #281, .T. ) ;
#235 = AXIS2_PLACEMENT_3D ( 'NONE', #86, #37, #21 ) ;
#236 = CARTESIAN_POINT ( 'NONE',  ( 4.813213011944564634, 0.2644367505942603613, -7.996667802653983692 ) ) ;
#237 = DIRECTION ( 'NONE',  ( -1.000000000000000000, -0.000000000000000000, -0.000000000000000000 ) ) ;
#238 = CARTESIAN_POINT ( 'NONE',  ( 8.396936054072257960, -1.231738152970957234, -7.906804306981455532 ) ) ;
#239 = DIRECTION ( 'NONE',  ( 0.000000000000000000, 0.000000000000000000, 1.000000000000000000 ) ) ;
#240 = CARTESIAN_POINT ( 'NONE',  ( 4.864855936035986872, -0.5219835080499038993, 7.983993734866757563 ) ) ;
#241 = EDGE_CURVE ( 'NONE', #109, #109, #85, .T. ) ;
#242 = CIRCLE ( 'NONE', #222, 8.000000000000003553 ) ;
#243 = CARTESIAN_POINT ( 'NONE',  ( 8.799999999999995381, -4.065758146820641628E-17, 8.000000000000003553 ) ) ;
#244 = CARTESIAN_POINT ( 'NONE',  ( 5.066076548552961079, -1.005202429705906120, 7.937347028442240493 ) ) ;
#245 = CARTESIAN_POINT ( 'NONE',  ( 8.697085019606278777, -0.6467101618175001843, 7.974743786963693459 ) ) ;
#246 = CARTESIAN_POINT ( 'NONE',  ( 5.293284783578028119, -1.321730646216308980, 7.890620032838621789 ) ) ;
#247 = AXIS2_PLACEMENT_3D ( 'NONE', #297, #8, #145 ) ;
#248 =( GEOMETRIC_REPRESENTATION_CONTEXT ( 3 ) GLOBAL_UNCERTAINTY_ASSIGNED_CONTEXT ( ( #312 ) ) GLOBAL_UNIT_ASSIGNED_CONTEXT ( ( #210, #253, #307 ) ) REPRESENTATION_CONTEXT ( 'NONE', 'WORKASPACE' ) );
#249 = DIRECTION ( 'NONE',  ( 0.000000000000000000, 0.000000000000000000, -1.000000000000000000 ) ) ;
#250 = VERTEX_POINT ( 'NONE', #314 ) ;
#251 = FACE_BOUND ( 'NONE', #36, .T. ) ;
#252 = CONICAL_SURFACE ( 'NONE', #141, 8.000000000000000000, 0.7853981633974465026 ) ;
#253 =( NAMED_UNIT ( * ) PLANE_ANGLE_UNIT ( ) SI_UNIT ( $, .RADIAN. ) );
#254 = CARTESIAN_POINT ( 'NONE',  ( 4.902923892400390393, 0.6466718616380381368, -7.974742522495203545 ) ) ;
#255 = CARTESIAN_POINT ( 'NONE',  ( 6.274731165233891517, -1.947695273348126532, -7.759981374729036929 ) ) ;
#256 = EDGE_LOOP ( 'NONE', ( #45 ) ) ;
#257 = ADVANCED_FACE ( 'NONE', ( #12, #202 ), #306, .T. ) ;
#258 = CARTESIAN_POINT ( 'NONE',  ( 8.799999999999991829, -2.407412430484044816E-32, -8.000000000000001776 ) ) ;
#259 = CARTESIAN_POINT ( 'NONE',  ( 8.799999999999997158, -0.1326938576183066543, -8.000000000000005329 ) ) ;
#260 = EDGE_LOOP ( 'NONE', ( #110 ) ) ;
#261 = PRODUCT_DEFINITION ( 'UNKNOWN', '', #103, #272 ) ;
#262 = CARTESIAN_POINT ( 'NONE',  ( 7.062388576551843933, -1.987085825042435472, 7.749335319413516387 ) ) ;
#263 = PRESENTATION_LAYER_ASSIGNMENT (  '', '', ( #112 ) ) ;
#264 = DIRECTION ( 'NONE',  ( -1.000000000000000000, 0.000000000000000000, -0.000000000000000000 ) ) ;
#265 = CARTESIAN_POINT ( 'NONE',  ( 8.735796328908492114, -0.5193959850005185341, 7.984152631573065761 ) ) ;
#266 = CARTESIAN_POINT ( 'NONE',  ( 7.061063984271864769, 1.987208484000324571, 7.749302850484569127 ) ) ;
#267 = FACE_BOUND ( 'NONE', #87, .T. ) ;
#268 = VERTEX_POINT ( 'NONE', #125 ) ;
#269 = FACE_OUTER_BOUND ( 'NONE', #70, .T. ) ;
#270 = CARTESIAN_POINT ( 'NONE',  ( -3.089190695281089467E-16, 6.500000000000005329, 0.000000000000000000 ) ) ;
#271 = VERTEX_POINT ( 'NONE', #149 ) ;
#272 = PRODUCT_DEFINITION_CONTEXT ( 'detailed design', #313, 'design' ) ;
#273 = PRODUCT ( '76.04.01.0008', '76.04.01.0008', '', ( #213 ) ) ;
#274 = DIRECTION ( 'NONE',  ( 0.000000000000000000, 0.000000000000000000, 1.000000000000000000 ) ) ;
#275 = AXIS2_PLACEMENT_3D ( 'NONE', #126, #177, #175 ) ;
#276 = FACE_OUTER_BOUND ( 'NONE', #190, .T. ) ;
#277 = FILL_AREA_STYLE_COLOUR ( '', #200 ) ;
#278 = CARTESIAN_POINT ( 'NONE',  ( 4.852587021635680564, -0.5249963432426962839, -7.986424433487821162 ) ) ;
#279 = ORIENTED_EDGE ( 'NONE', *, *, #152, .F. ) ;
#280 = CARTESIAN_POINT ( 'NONE',  ( 4.799889474043357751, -0.2608004744982262424, -8.000027631486839041 ) ) ;
#281 = EDGE_LOOP ( 'NONE', ( #229 ) ) ;
#282 = CARTESIAN_POINT ( 'NONE',  ( 5.571219190703965651, 1.599608796201501759, -7.840706429540704292 ) ) ;
#283 = FACE_BOUND ( 'NONE', #256, .T. ) ;
#284 = SURFACE_STYLE_USAGE ( .BOTH. , #113 ) ;
#285 = CARTESIAN_POINT ( 'NONE',  ( 7.447375157614360752, 1.896799698109078891, -7.772051664940886617 ) ) ;
#286 = ORIENTED_EDGE ( 'NONE', *, *, #49, .F. ) ;
#287 = EDGE_CURVE ( 'NONE', #230, #230, #182, .T. ) ;
#288 = APPLICATION_PROTOCOL_DEFINITION ( 'draft international standard', 'automotive_design', 1998, #295 ) ;
#289 = CARTESIAN_POINT ( 'NONE',  ( 5.795215669357679289, 1.734157020499708546, 7.810132171752178998 ) ) ;
#290 = CARTESIAN_POINT ( 'NONE',  ( 6.670248399535018358, -2.000082289394082835, 7.745945445389172512 ) ) ;
#291 = AXIS2_PLACEMENT_3D ( 'NONE', #9, #106, #55 ) ;
#292 = CARTESIAN_POINT ( 'NONE',  ( 48.50000000000000000, 0.000000000000000000, 0.000000000000000000 ) ) ;
#293 = CARTESIAN_POINT ( 'NONE',  ( 8.786922371444441993, 0.2634687029185876495, 7.996701549926656050 ) ) ;
#294 = CARTESIAN_POINT ( 'NONE',  ( 7.447375157614360752, -1.896799698109078891, 7.772051664940886617 ) ) ;
#295 = APPLICATION_CONTEXT ( 'automotive_design' ) ;
#296 = PRESENTATION_LAYER_ASSIGNMENT (  '', '', ( #31 ) ) ;
#297 = CARTESIAN_POINT ( 'NONE',  ( 6.799999999999991829, -2.407412430484044816E-32, -10.00000000000000533 ) ) ;
#298 = VERTEX_POINT ( 'NONE', #60 ) ;
#299 = FACE_OUTER_BOUND ( 'NONE', #157, .T. ) ;
#300 = CARTESIAN_POINT ( 'NONE',  ( 45.00000000000000000, 0.000000000000000000, 0.000000000000000000 ) ) ;
#301 = CIRCLE ( 'NONE', #24, 8.500000000000015987 ) ;
#302 = CARTESIAN_POINT ( 'NONE',  ( 8.735796328908492114, 0.5193959850005185341, -7.984152631573065761 ) ) ;
#303 = CARTESIAN_POINT ( 'NONE',  ( 6.280196427791076452, 1.935707530440641255, -7.762327959773736907 ) ) ;
#304 = CARTESIAN_POINT ( 'NONE',  ( 8.389898868408904420, 1.220352591867007508, -7.907132501541066283 ) ) ;
#305 = CARTESIAN_POINT ( 'NONE',  ( 0.000000000000000000, 0.000000000000000000, 0.000000000000000000 ) ) ;
#306 = CONICAL_SURFACE ( 'NONE', #170, 8.500000000000015987, 0.7853981633974442822 ) ;
#307 =( NAMED_UNIT ( * ) SI_UNIT ( $, .STERADIAN. ) SOLID_ANGLE_UNIT ( ) );
#308 = CARTESIAN_POINT ( 'NONE',  ( 8.786922371444441993, -0.2634687029185876495, -7.996701549926656050 ) ) ;
#309 = ORIENTED_EDGE ( 'NONE', *, *, #100, .F. ) ;
#310 = CARTESIAN_POINT ( 'NONE',  ( 5.909847954400285985, -1.795824432500143120, -7.796006770207849712 ) ) ;
#311 = EDGE_LOOP ( 'NONE', ( #232 ) ) ;
#312 = UNCERTAINTY_MEASURE_WITH_UNIT (LENGTH_MEASURE( 1.000000000000000082E-05 ), #210, 'distance_accuracy_value', 'NONE');
#313 = APPLICATION_CONTEXT ( 'automotive_design' ) ;
#314 = CARTESIAN_POINT ( 'NONE',  ( 48.50000000000000000, 0.000000000000000000, 8.500000000000015987 ) ) ;
ENDSEC;
END-ISO-10303-21;
