ISO-10303-21;
HEADER;
FILE_DESCRIPTION (( 'STEP AP214' ),
    '1' );
FILE_NAME ('76.04.01.0004.step',
    '2021-04-02T17:59:41',
    ( '' ),
    ( '' ),
    'SwSTEP 2.0',
    'SolidWorks 2021',
    '' );
FILE_SCHEMA (( 'AUTOMOTIVE_DESIGN' ));
ENDSEC;

DATA;
#1 = DIRECTION ( 'NONE',  ( -1.000000000000000000, -0.000000000000000000, -0.000000000000000000 ) ) ;
#2 = UNCERTAINTY_MEASURE_WITH_UNIT (LENGTH_MEASURE( 1.000000000000000082E-05 ), #84, 'distance_accuracy_value', 'NONE');
#3 = CARTESIAN_POINT ( 'NONE',  ( 0.000000000000000000, 0.000000000000000000, 0.000000000000000000 ) ) ;
#4 = CARTESIAN_POINT ( 'NONE',  ( 2.626189573984040848, -0.5034530331280135940, -3.970035785920771332 ) ) ;
#5 = EDGE_LOOP ( 'NONE', ( #40 ) ) ;
#6 = FACE_OUTER_BOUND ( 'NONE', #250, .T. ) ;
#7 = EDGE_LOOP ( 'NONE', ( #67 ) ) ;
#8 = CARTESIAN_POINT ( 'NONE',  ( 2.526388374808140380, 0.2629879425960676143, -3.993186714740070364 ) ) ;
#9 = VERTEX_POINT ( 'NONE', #46 ) ;
#10 = FACE_OUTER_BOUND ( 'NONE', #24, .T. ) ;
#11 = PRESENTATION_LAYER_ASSIGNMENT (  '', '', ( #74 ) ) ;
#12 = CARTESIAN_POINT ( 'NONE',  ( 4.298468027036132177, -0.6158690764854782840, -3.953402153490726878 ) ) ;
#13 = VERTEX_POINT ( 'NONE', #261 ) ;
#14 = VERTEX_POINT ( 'NONE', #100 ) ;
#15 = CIRCLE ( 'NONE', #156, 6.000000000000000888 ) ;
#16 = CARTESIAN_POINT ( 'NONE',  ( 3.631645011645382226, -0.9999171131048740779, 3.873004747507172052 ) ) ;
#17 = DIRECTION ( 'NONE',  ( 1.000000000000000000, 0.000000000000000000, 0.000000000000000000 ) ) ;
#18 = CARTESIAN_POINT ( 'NONE',  ( 4.473687777201589277, -0.2628644470837504521, 3.993203574020895097 ) ) ;
#19 = MECHANICAL_DESIGN_GEOMETRIC_PRESENTATION_REPRESENTATION (  '', ( #74 ), #60 ) ;
#20 = DIRECTION ( 'NONE',  ( 0.000000000000000000, 0.000000000000000000, -1.000000000000000000 ) ) ;
#21 = CARTESIAN_POINT ( 'NONE',  ( 4.499999999999999112, -2.710505431213761085E-17, 3.999999999999999112 ) ) ;
#22 = DIRECTION ( 'NONE',  ( -1.000000000000000000, -0.000000000000000000, -0.000000000000000000 ) ) ;
#23 = CARTESIAN_POINT ( 'NONE',  ( 3.631645011645382226, 0.9999171131048740779, -3.873004747507172052 ) ) ;
#24 = EDGE_LOOP ( 'NONE', ( #152 ) ) ;
#25 = AXIS2_PLACEMENT_3D ( 'NONE', #148, #153, #189 ) ;
#26 = CARTESIAN_POINT ( 'NONE',  ( 2.499944737021683405, -0.1304002372491132045, -4.000013815743416856 ) ) ;
#27 = ORIENTED_EDGE ( 'NONE', *, *, #64, .T. ) ;
#28 = ADVANCED_FACE ( 'NONE', ( #206, #91 ), #170, .T. ) ;
#29 = CARTESIAN_POINT ( 'NONE',  ( 4.499999999999999112, 0.1326938576183073759, -4.000000000000000000 ) ) ;
#30 = EDGE_LOOP ( 'NONE', ( #211 ) ) ;
#31 = PRESENTATION_STYLE_ASSIGNMENT (( #177 ) ) ;
#32 = AXIS2_PLACEMENT_3D ( 'NONE', #244, #203, #56 ) ;
#33 = PRODUCT_RELATED_PRODUCT_CATEGORY ( 'part', '', ( #52 ) ) ;
#34 = SURFACE_STYLE_FILL_AREA ( #96 ) ;
#35 = SURFACE_STYLE_USAGE ( .BOTH. , #51 ) ;
#36 = CARTESIAN_POINT ( 'NONE',  ( 3.631413683026627925, 1.000069203228642900, 3.872965478013312257 ) ) ;
#37 = CARTESIAN_POINT ( 'NONE',  ( 3.369617262474888797, -1.000082488561097271, 3.872962047757054993 ) ) ;
#38 = DIRECTION ( 'NONE',  ( 0.000000000000000000, 0.000000000000000000, 1.000000000000000000 ) ) ;
#39 = DIRECTION ( 'NONE',  ( 0.000000000000000000, 0.000000000000000000, 1.000000000000000000 ) ) ;
#40 = ORIENTED_EDGE ( 'NONE', *, *, #57, .F. ) ;
#41 = CARTESIAN_POINT ( 'NONE',  ( 4.115105738646330558, 0.7990713521186505464, -3.920483232541134733 ) ) ;
#42 = CARTESIAN_POINT ( 'NONE',  ( 2.995540123240334918, 0.8733793832355212228, -3.903829604361698902 ) ) ;
#43 =( LENGTH_UNIT ( ) NAMED_UNIT ( * ) SI_UNIT ( .MILLI., .METRE. ) );
#44 = DIRECTION ( 'NONE',  ( 0.000000000000000000, 0.000000000000000000, 1.000000000000000000 ) ) ;
#45 = CARTESIAN_POINT ( 'NONE',  ( 23.00000000000000000, 0.000000000000000000, 0.000000000000000000 ) ) ;
#46 = CARTESIAN_POINT ( 'NONE',  ( 4.500000000000000000, -2.407412430484044816E-32, -4.000000000000000000 ) ) ;
#47 = PRODUCT_DEFINITION_SHAPE ( 'NONE', 'NONE',  #155 ) ;
#48 = FILL_AREA_STYLE_COLOUR ( '', #121 ) ;
#49 = CIRCLE ( 'NONE', #264, 5.000000000000004441 ) ;
#50 = CARTESIAN_POINT ( 'NONE',  ( 0.9999999999999997780, 0.000000000000000000, 3.999999999999998224 ) ) ;
#51 = SURFACE_SIDE_STYLE ('',( #34 ) ) ;
#52 = PRODUCT ( '76.04.01.0004', '76.04.01.0004', '', ( #78 ) ) ;
#53 = AXIS2_PLACEMENT_3D ( 'NONE', #169, #85, #38 ) ;
#54 = CARTESIAN_POINT ( 'NONE',  ( 3.237365582616948956, 0.9738476366740637102, 3.879990687364517132 ) ) ;
#55 = ADVANCED_BREP_SHAPE_REPRESENTATION ( '76.04.01.0004', ( #175, #68 ), #173 ) ;
#56 = DIRECTION ( 'NONE',  ( 1.000000000000000000, 0.000000000000000000, 0.000000000000000000 ) ) ;
#57 = EDGE_CURVE ( 'NONE', #161, #161, #212, .T. ) ;
#58 = CARTESIAN_POINT ( 'NONE',  ( 4.373106707607803401, -0.5048269823837485681, 3.969876851864702516 ) ) ;
#59 = CARTESIAN_POINT ( 'NONE',  ( 2.995540123240334918, -0.8733793832355212228, 3.903829604361698902 ) ) ;
#60 =( GEOMETRIC_REPRESENTATION_CONTEXT ( 3 ) GLOBAL_UNCERTAINTY_ASSIGNED_CONTEXT ( ( #113 ) ) GLOBAL_UNIT_ASSIGNED_CONTEXT ( ( #43, #216, #251 ) ) REPRESENTATION_CONTEXT ( 'NONE', 'WORKASPACE' ) );
#61 = CARTESIAN_POINT ( 'NONE',  ( 2.500055441999219585, -0.1312464544659426857, 3.999986139501356508 ) ) ;
#62 = ORIENTED_EDGE ( 'NONE', *, *, #127, .F. ) ;
#63 = FACE_OUTER_BOUND ( 'NONE', #187, .T. ) ;
#64 = EDGE_CURVE ( 'NONE', #13, #13, #263, .T. ) ;
#65 = EDGE_LOOP ( 'NONE', ( #27 ) ) ;
#66 = DIRECTION ( 'NONE',  ( 0.000000000000000000, 0.000000000000000000, 1.000000000000000000 ) ) ;
#67 = ORIENTED_EDGE ( 'NONE', *, *, #64, .F. ) ;
#68 = AXIS2_PLACEMENT_3D ( 'NONE', #137, #160, #162 ) ;
#69 = CARTESIAN_POINT ( 'NONE',  ( 4.473687777201589277, 0.2628644470837504521, -3.993203574020895097 ) ) ;
#70 = ORIENTED_EDGE ( 'NONE', *, *, #115, .F. ) ;
#71 = ADVANCED_FACE ( 'NONE', ( #225, #141 ), #168, .T. ) ;
#72 = DIRECTION ( 'NONE',  ( 0.000000000000000000, 0.000000000000000000, 1.000000000000000000 ) ) ;
#73 = FACE_BOUND ( 'NONE', #235, .T. ) ;
#74 = STYLED_ITEM ( 'NONE', ( #31 ), #175 ) ;
#75 = VERTEX_POINT ( 'NONE', #239 ) ;
#76 = VERTEX_POINT ( 'NONE', #50 ) ;
#77 = AXIS2_PLACEMENT_3D ( 'NONE', #45, #1, #72 ) ;
#78 = PRODUCT_CONTEXT ( 'NONE', #272, 'mechanical' ) ;
#79 = ADVANCED_FACE ( 'NONE', ( #202 ), #122, .F. ) ;
#80 = CARTESIAN_POINT ( 'NONE',  ( 4.499999999999999112, -0.1326938576183073759, 4.000000000000000000 ) ) ;
#81 = CYLINDRICAL_SURFACE ( 'NONE', #32, 1.000000000000000000 ) ;
#82 = CARTESIAN_POINT ( 'NONE',  ( 2.994110108727879638, 0.8726004094420745094, 3.904007617683724174 ) ) ;
#83 = DIRECTION ( 'NONE',  ( 0.000000000000000000, 0.000000000000000000, -1.000000000000000000 ) ) ;
#84 =( LENGTH_UNIT ( ) NAMED_UNIT ( * ) SI_UNIT ( .MILLI., .METRE. ) );
#85 = DIRECTION ( 'NONE',  ( -1.000000000000000000, -0.000000000000000000, -0.000000000000000000 ) ) ;
#86 = EDGE_LOOP ( 'NONE', ( #191 ) ) ;
#87 = SURFACE_SIDE_STYLE ('',( #90 ) ) ;
#88 = DIRECTION ( 'NONE',  ( 0.000000000000000000, 0.000000000000000000, 1.000000000000000000 ) ) ;
#89 = CARTESIAN_POINT ( 'NONE',  ( 2.884527973445056404, -0.7988737555279891156, -3.920534371368223248 ) ) ;
#90 = SURFACE_STYLE_FILL_AREA ( #129 ) ;
#91 = FACE_OUTER_BOUND ( 'NONE', #65, .T. ) ;
#92 = PRODUCT_DEFINITION_FORMATION_WITH_SPECIFIED_SOURCE ( 'ANY', '', #52, .NOT_KNOWN. ) ;
#93 = ADVANCED_FACE ( 'NONE', ( #102, #271 ), #81, .F. ) ;
#94 = CARTESIAN_POINT ( 'NONE',  ( 23.00000000000000000, 0.000000000000000000, 0.000000000000000000 ) ) ;
#95 = CARTESIAN_POINT ( 'NONE',  ( 4.499999999999999112, 2.710505431213761085E-17, -3.999999999999999112 ) ) ;
#96 = FILL_AREA_STYLE ('',( #48 ) ) ;
#97 = CARTESIAN_POINT ( 'NONE',  ( 3.631413683026627925, -1.000069203228642900, -3.872965478013312257 ) ) ;
#98 = CARTESIAN_POINT ( 'NONE',  ( 4.499999999999999112, 2.710505431213761085E-17, -3.999999999999999112 ) ) ;
#99 = CIRCLE ( 'NONE', #77, 4.000000000000001776 ) ;
#100 = CARTESIAN_POINT ( 'NONE',  ( 25.00000000000000000, 0.000000000000000000, 5.000000000000004441 ) ) ;
#101 = CARTESIAN_POINT ( 'NONE',  ( 4.115105738646330558, -0.7990713521186505464, 3.920483232541134733 ) ) ;
#102 = FACE_OUTER_BOUND ( 'NONE', #190, .T. ) ;
#103 = CARTESIAN_POINT ( 'NONE',  ( 25.00000000000000000, 0.000000000000000000, 0.000000000000000000 ) ) ;
#104 = CARTESIAN_POINT ( 'NONE',  ( 0.9999999999999997780, 0.000000000000000000, 0.000000000000000000 ) ) ;
#105 = CARTESIAN_POINT ( 'NONE',  ( 4.003987361266985623, -0.8734646124062879213, 3.903805290755550494 ) ) ;
#106 = CARTESIAN_POINT ( 'NONE',  ( 2.626682660376375100, 0.5043798954878732088, -3.969924900770184895 ) ) ;
#107 = EDGE_LOOP ( 'NONE', ( #128 ) ) ;
#108 = CARTESIAN_POINT ( 'NONE',  ( 2.526293510817843924, -0.2624981716213485305, -3.993212216743908805 ) ) ;
#109 = CARTESIAN_POINT ( 'NONE',  ( 3.369617262474888797, 1.000082488561097271, -3.872962047757054993 ) ) ;
#110 = ADVANCED_FACE ( 'NONE', ( #201, #142 ), #274, .T. ) ;
#111 = ORIENTED_EDGE ( 'NONE', *, *, #159, .F. ) ;
#112 = AXIS2_PLACEMENT_3D ( 'NONE', #3, #22, #88 ) ;
#113 = UNCERTAINTY_MEASURE_WITH_UNIT (LENGTH_MEASURE( 1.000000000000000082E-05 ), #43, 'distance_accuracy_value', 'NONE');
#114 = CARTESIAN_POINT ( 'NONE',  ( 3.367535207020960542, -0.9999305205633123306, -3.873001285718253417 ) ) ;
#115 = EDGE_CURVE ( 'NONE', #76, #76, #238, .T. ) ;
#116 = VERTEX_POINT ( 'NONE', #199 ) ;
#117 = CIRCLE ( 'NONE', #135, 3.000000000000001776 ) ;
#118 = CARTESIAN_POINT ( 'NONE',  ( 3.237365582616948956, -0.9738476366740637102, -3.879990687364517132 ) ) ;
#119 =( NAMED_UNIT ( * ) PLANE_ANGLE_UNIT ( ) SI_UNIT ( $, .RADIAN. ) );
#120 = CARTESIAN_POINT ( 'NONE',  ( 4.114790891525037075, -0.7992984857160070344, -3.920434317435800509 ) ) ;
#121 = COLOUR_RGB ( '',0.8274509803921568096, 0.8392156862745098200, 0.8274509803921568096 ) ;
#122 = PLANE ( 'NONE',  #258 ) ;
#123 = DIRECTION ( 'NONE',  ( -1.000000000000000000, -0.000000000000000000, -0.000000000000000000 ) ) ;
#124 = CARTESIAN_POINT ( 'NONE',  ( 2.884527973445056404, 0.7988737555279891156, 3.920534371368223248 ) ) ;
#125 = CARTESIAN_POINT ( 'NONE',  ( 4.298468027036132177, 0.6158690764854782840, 3.953402153490726878 ) ) ;
#126 = CARTESIAN_POINT ( 'NONE',  ( 2.626189573984040848, 0.5034530331280135940, 3.970035785920771332 ) ) ;
#127 = EDGE_CURVE ( 'NONE', #116, #116, #117, .T. ) ;
#128 = ORIENTED_EDGE ( 'NONE', *, *, #200, .F. ) ;
#129 = FILL_AREA_STYLE ('',( #234 ) ) ;
#130 = CARTESIAN_POINT ( 'NONE',  ( 2.700319990601360853, 0.6145522981106220639, -3.953628950302296552 ) ) ;
#131 = PRODUCT_DEFINITION_CONTEXT ( 'detailed design', #257, 'design' ) ;
#132 = FACE_BOUND ( 'NONE', #86, .T. ) ;
#133 = PLANE ( 'NONE',  #25 ) ;
#134 = CLOSED_SHELL ( 'NONE', ( #248, #71, #28, #209, #176, #110, #79, #93 ) ) ;
#135 = AXIS2_PLACEMENT_3D ( 'NONE', #246, #145, #39 ) ;
#136 = SHAPE_DEFINITION_REPRESENTATION ( #47, #55 ) ;
#137 = CARTESIAN_POINT ( 'NONE',  ( 0.000000000000000000, 0.000000000000000000, 0.000000000000000000 ) ) ;
#138 = CARTESIAN_POINT ( 'NONE',  ( 4.499999999999999112, -0.1326938576183068208, -3.999999999999998224 ) ) ;
#139 = AXIS2_PLACEMENT_3D ( 'NONE', #103, #123, #223 ) ;
#140 = AXIS2_PLACEMENT_3D ( 'NONE', #184, #270, #167 ) ;
#141 = FACE_BOUND ( 'NONE', #231, .T. ) ;
#142 = FACE_OUTER_BOUND ( 'NONE', #146, .T. ) ;
#143 = CARTESIAN_POINT ( 'NONE',  ( 4.372979507511558950, 0.5048850357595637828, 3.969850692948448945 ) ) ;
#144 = PRESENTATION_LAYER_ASSIGNMENT (  '', '', ( #217 ) ) ;
#145 = DIRECTION ( 'NONE',  ( -1.000000000000000000, -0.000000000000000000, -0.000000000000000000 ) ) ;
#146 = EDGE_LOOP ( 'NONE', ( #252 ) ) ;
#147 = CARTESIAN_POINT ( 'NONE',  ( 4.003775730693104329, 0.8736513817240795232, 3.903764615555818551 ) ) ;
#148 = CARTESIAN_POINT ( 'NONE',  ( 23.00000000000000000, 6.000000000000000888, 0.000000000000000000 ) ) ;
#149 = ORIENTED_EDGE ( 'NONE', *, *, #159, .T. ) ;
#150 = CARTESIAN_POINT ( 'NONE',  ( 4.298827210815258759, 0.6154227674968552053, -3.953474246742910037 ) ) ;
#151 = CARTESIAN_POINT ( 'NONE',  ( 2.885609595351987355, 0.7998043981007503245, -3.920353214770347705 ) ) ;
#152 = ORIENTED_EDGE ( 'NONE', *, *, #166, .F. ) ;
#153 = DIRECTION ( 'NONE',  ( 1.000000000000000000, 0.000000000000000000, 0.000000000000000000 ) ) ;
#154 = FACE_BOUND ( 'NONE', #233, .T. ) ;
#155 = PRODUCT_DEFINITION ( 'UNKNOWN', '', #92, #131 ) ;
#156 = AXIS2_PLACEMENT_3D ( 'NONE', #94, #215, #210 ) ;
#157 = CARTESIAN_POINT ( 'NONE',  ( 4.372979507511558950, -0.5048850357595637828, -3.969850692948448945 ) ) ;
#158 = CARTESIAN_POINT ( 'NONE',  ( 4.500000000000000000, 0.000000000000000000, 4.000000000000000000 ) ) ;
#159 = EDGE_CURVE ( 'NONE', #75, #75, #99, .T. ) ;
#160 = DIRECTION ( 'NONE',  ( 0.000000000000000000, 0.000000000000000000, 1.000000000000000000 ) ) ;
#161 = VERTEX_POINT ( 'NONE', #158 ) ;
#162 = DIRECTION ( 'NONE',  ( 1.000000000000000000, 0.000000000000000000, 0.000000000000000000 ) ) ;
#163 = CARTESIAN_POINT ( 'NONE',  ( 3.763587651320584815, -0.9733782612706236570, 3.880099346375407876 ) ) ;
#164 = CARTESIAN_POINT ( 'NONE',  ( 2.885609595351987355, -0.7998043981007503245, 3.920353214770347705 ) ) ;
#165 = CARTESIAN_POINT ( 'NONE',  ( 3.367535207020960542, 0.9999305205633123306, 3.873001285718253417 ) ) ;
#166 = EDGE_CURVE ( 'NONE', #14, #14, #49, .T. ) ;
#167 = DIRECTION ( 'NONE',  ( 0.000000000000000000, 0.000000000000000000, 1.000000000000000000 ) ) ;
#168 = CONICAL_SURFACE ( 'NONE', #139, 5.000000000000004441, 0.7853981633974466137 ) ;
#169 = CARTESIAN_POINT ( 'NONE',  ( 24.00000000000000000, 0.000000000000000000, 0.000000000000000000 ) ) ;
#170 = CYLINDRICAL_SURFACE ( 'NONE', #112, 6.000000000000001776 ) ;
#171 = CARTESIAN_POINT ( 'NONE',  ( 4.373106707607803401, 0.5048269823837485681, -3.969876851864702516 ) ) ;
#172 = CARTESIAN_POINT ( 'NONE',  ( 0.000000000000000000, 0.000000000000000000, 0.000000000000000000 ) ) ;
#173 =( GEOMETRIC_REPRESENTATION_CONTEXT ( 3 ) GLOBAL_UNCERTAINTY_ASSIGNED_CONTEXT ( ( #218 ) ) GLOBAL_UNIT_ASSIGNED_CONTEXT ( ( #220, #119, #197 ) ) REPRESENTATION_CONTEXT ( 'NONE', 'WORKASPACE' ) );
#174 = CARTESIAN_POINT ( 'NONE',  ( 2.500055441999219585, 0.1312464544659426857, -3.999986139501356508 ) ) ;
#175 = MANIFOLD_SOLID_BREP ( 'Cut-Extrude1', #134 ) ;
#176 = ADVANCED_FACE ( 'NONE', ( #154, #132, #63, #6 ), #213, .T. ) ;
#177 = SURFACE_STYLE_USAGE ( .BOTH. , #87 ) ;
#178 = PLANE ( 'NONE',  #226 ) ;
#179 = CARTESIAN_POINT ( 'NONE',  ( 23.00000000000000000, 0.000000000000000000, 6.000000000000000888 ) ) ;
#180 = CARTESIAN_POINT ( 'NONE',  ( 2.700319990601360853, -0.6145522981106220639, 3.953628950302296552 ) ) ;
#181 = CARTESIAN_POINT ( 'NONE',  ( 4.298827210815258759, -0.6154227674968552053, 3.953474246742910037 ) ) ;
#182 = AXIS2_PLACEMENT_3D ( 'NONE', #104, #224, #83 ) ;
#183 = CARTESIAN_POINT ( 'NONE',  ( 4.114790891525037075, 0.7992984857160070344, 3.920434317435800509 ) ) ;
#184 = CARTESIAN_POINT ( 'NONE',  ( 0.9999999999999997780, 0.000000000000000000, 0.000000000000000000 ) ) ;
#185 =( NAMED_UNIT ( * ) SI_UNIT ( $, .STERADIAN. ) SOLID_ANGLE_UNIT ( ) );
#186 = CARTESIAN_POINT ( 'NONE',  ( 3.762505313344807423, 0.9737287528308435913, 3.880012529150460576 ) ) ;
#187 = EDGE_LOOP ( 'NONE', ( #70 ) ) ;
#188 = B_SPLINE_CURVE_WITH_KNOTS ( 'NONE', 3,
 ( #95, #29, #69, #171, #150, #41, #207, #230, #23, #109, #236, #42, #151, #130, #106, #8, #174, #26, #108, #4, #256, #89, #192, #118, #114, #97, #198, #259, #120, #12, #157, #241, #138, #98 ),
 .UNSPECIFIED., .T., .F.,
 ( 4, 2, 2, 2, 2, 2, 2, 2, 2, 2, 2, 2, 2, 2, 2, 2, 4 ),
 ( 0.000000000000000000, 0.0003923156643295066756, 0.0007846313286590133511, 0.001176946992988520081, 0.001569262657318025401, 0.001961578321647530938, 0.002353893985977036692, 0.002746209650306542446, 0.003138525314636047333, 0.003530840978965553087, 0.003923156643295058407, 0.004315472307624563728, 0.004707787971954069048, 0.005100103636283574368, 0.005492419300613079688, 0.005884734964942585009, 0.006277050629272090329 ),
 .UNSPECIFIED. ) ;
#189 = DIRECTION ( 'NONE',  ( 0.000000000000000000, 0.000000000000000000, -1.000000000000000000 ) ) ;
#190 = EDGE_LOOP ( 'NONE', ( #193 ) ) ;
#191 = ORIENTED_EDGE ( 'NONE', *, *, #219, .T. ) ;
#192 = CARTESIAN_POINT ( 'NONE',  ( 2.994110108727879638, -0.8726004094420745094, -3.904007617683724174 ) ) ;
#193 = ORIENTED_EDGE ( 'NONE', *, *, #219, .F. ) ;
#194 = FACE_OUTER_BOUND ( 'NONE', #214, .T. ) ;
#195 = CARTESIAN_POINT ( 'NONE',  ( 25.00000000000000000, 0.000000000000000000, 0.000000000000000000 ) ) ;
#196 = DIRECTION ( 'NONE',  ( -1.000000000000000000, 0.000000000000000000, -0.000000000000000000 ) ) ;
#197 =( NAMED_UNIT ( * ) SI_UNIT ( $, .STERADIAN. ) SOLID_ANGLE_UNIT ( ) );
#198 = CARTESIAN_POINT ( 'NONE',  ( 3.762505313344807423, -0.9737287528308435913, -3.880012529150460576 ) ) ;
#199 = CARTESIAN_POINT ( 'NONE',  ( -2.112623243741537060E-16, 0.000000000000000000, 3.000000000000001776 ) ) ;
#200 = EDGE_CURVE ( 'NONE', #240, #240, #15, .T. ) ;
#201 = FACE_BOUND ( 'NONE', #228, .T. ) ;
#202 = FACE_OUTER_BOUND ( 'NONE', #30, .T. ) ;
#203 = DIRECTION ( 'NONE',  ( -0.000000000000000000, -0.000000000000000000, 1.000000000000000000 ) ) ;
#204 = CARTESIAN_POINT ( 'NONE',  ( -1.056311621870768530E-16, 3.000000000000001776, 0.000000000000000000 ) ) ;
#205 = CARTESIAN_POINT ( 'NONE',  ( 2.499944737021683405, 0.1304002372491132045, 4.000013815743416856 ) ) ;
#206 = FACE_OUTER_BOUND ( 'NONE', #107, .T. ) ;
#207 = CARTESIAN_POINT ( 'NONE',  ( 4.003987361266985623, 0.8734646124062879213, -3.903805290755550494 ) ) ;
#208 = ORIENTED_EDGE ( 'NONE', *, *, #57, .T. ) ;
#209 = ADVANCED_FACE ( 'NONE', ( #73, #194 ), #133, .F. ) ;
#210 = DIRECTION ( 'NONE',  ( 0.000000000000000000, 0.000000000000000000, 1.000000000000000000 ) ) ;
#211 = ORIENTED_EDGE ( 'NONE', *, *, #127, .T. ) ;
#212 = B_SPLINE_CURVE_WITH_KNOTS ( 'NONE', 3,
 ( #21, #80, #18, #58, #181, #101, #105, #163, #16, #37, #243, #59, #164, #180, #266, #249, #61, #205, #267, #126, #229, #124, #82, #54, #165, #36, #186, #147, #183, #125, #143, #227, #245, #269 ),
 .UNSPECIFIED., .T., .F.,
 ( 4, 2, 2, 2, 2, 2, 2, 2, 2, 2, 2, 2, 2, 2, 2, 2, 4 ),
 ( 0.000000000000000000, 0.0003923156643295066756, 0.0007846313286590133511, 0.001176946992988520081, 0.001569262657318025401, 0.001961578321647530938, 0.002353893985977036692, 0.002746209650306542446, 0.003138525314636047333, 0.003530840978965553087, 0.003923156643295058407, 0.004315472307624563728, 0.004707787971954069048, 0.005100103636283574368, 0.005492419300613079688, 0.005884734964942585009, 0.006277050629272090329 ),
 .UNSPECIFIED. ) ;
#213 = CYLINDRICAL_SURFACE ( 'NONE', #260, 4.000000000000000000 ) ;
#214 = EDGE_LOOP ( 'NONE', ( #273 ) ) ;
#215 = DIRECTION ( 'NONE',  ( -1.000000000000000000, -0.000000000000000000, -0.000000000000000000 ) ) ;
#216 =( NAMED_UNIT ( * ) PLANE_ANGLE_UNIT ( ) SI_UNIT ( $, .RADIAN. ) );
#217 = STYLED_ITEM ( 'NONE', ( #222 ), #55 ) ;
#218 = UNCERTAINTY_MEASURE_WITH_UNIT (LENGTH_MEASURE( 1.000000000000000082E-05 ), #220, 'distance_accuracy_value', 'NONE');
#219 = EDGE_CURVE ( 'NONE', #9, #9, #188, .T. ) ;
#220 =( LENGTH_UNIT ( ) NAMED_UNIT ( * ) SI_UNIT ( .MILLI., .METRE. ) );
#221 =( NAMED_UNIT ( * ) PLANE_ANGLE_UNIT ( ) SI_UNIT ( $, .RADIAN. ) );
#222 = PRESENTATION_STYLE_ASSIGNMENT (( #35 ) ) ;
#223 = DIRECTION ( 'NONE',  ( 0.000000000000000000, 0.000000000000000000, 1.000000000000000000 ) ) ;
#224 = DIRECTION ( 'NONE',  ( 1.000000000000000000, 0.000000000000000000, 0.000000000000000000 ) ) ;
#225 = FACE_OUTER_BOUND ( 'NONE', #7, .T. ) ;
#226 = AXIS2_PLACEMENT_3D ( 'NONE', #242, #196, #262 ) ;
#227 = CARTESIAN_POINT ( 'NONE',  ( 4.473255713058572169, 0.2641504057689765816, 3.993100047177543299 ) ) ;
#228 = EDGE_LOOP ( 'NONE', ( #62 ) ) ;
#229 = CARTESIAN_POINT ( 'NONE',  ( 2.700242099943472862, 0.6143227116428432444, 3.953656110527420608 ) ) ;
#230 = CARTESIAN_POINT ( 'NONE',  ( 3.763587651320584815, 0.9733782612706236570, -3.880099346375407876 ) ) ;
#231 = EDGE_LOOP ( 'NONE', ( #255 ) ) ;
#232 = DIRECTION ( 'NONE',  ( -1.000000000000000000, -0.000000000000000000, -0.000000000000000000 ) ) ;
#233 = EDGE_LOOP ( 'NONE', ( #208 ) ) ;
#234 = FILL_AREA_STYLE_COLOUR ( '', #247 ) ;
#235 = EDGE_LOOP ( 'NONE', ( #111 ) ) ;
#236 = CARTESIAN_POINT ( 'NONE',  ( 3.238331849061597545, 0.9740642140566057039, -3.879932478000870599 ) ) ;
#237 = APPLICATION_PROTOCOL_DEFINITION ( 'draft international standard', 'automotive_design', 1998, #257 ) ;
#238 = CIRCLE ( 'NONE', #140, 3.999999999999998224 ) ;
#239 = CARTESIAN_POINT ( 'NONE',  ( 23.00000000000000000, 0.000000000000000000, 4.000000000000001776 ) ) ;
#240 = VERTEX_POINT ( 'NONE', #179 ) ;
#241 = CARTESIAN_POINT ( 'NONE',  ( 4.473255713058572169, -0.2641504057689765816, -3.993100047177543299 ) ) ;
#242 = CARTESIAN_POINT ( 'NONE',  ( 25.00000000000000000, 0.000000000000000000, 0.000000000000000000 ) ) ;
#243 = CARTESIAN_POINT ( 'NONE',  ( 3.238331849061597545, -0.9740642140566057039, 3.879932478000870599 ) ) ;
#244 = CARTESIAN_POINT ( 'NONE',  ( 3.499999999999999556, -2.407412430484044816E-32, -6.000000000000001776 ) ) ;
#245 = CARTESIAN_POINT ( 'NONE',  ( 4.499999999999999112, 0.1326938576183068208, 3.999999999999998224 ) ) ;
#246 = CARTESIAN_POINT ( 'NONE',  ( -2.112623243741537060E-16, 0.000000000000000000, 0.000000000000000000 ) ) ;
#247 = COLOUR_RGB ( '',0.8274509803921568096, 0.8392156862745098200, 0.8274509803921568096 ) ;
#248 = ADVANCED_FACE ( 'NONE', ( #10 ), #178, .F. ) ;
#249 = CARTESIAN_POINT ( 'NONE',  ( 2.526388374808140380, -0.2629879425960676143, 3.993186714740070364 ) ) ;
#250 = EDGE_LOOP ( 'NONE', ( #149 ) ) ;
#251 =( NAMED_UNIT ( * ) SI_UNIT ( $, .STERADIAN. ) SOLID_ANGLE_UNIT ( ) );
#252 = ORIENTED_EDGE ( 'NONE', *, *, #115, .T. ) ;
#253 =( GEOMETRIC_REPRESENTATION_CONTEXT ( 3 ) GLOBAL_UNCERTAINTY_ASSIGNED_CONTEXT ( ( #2 ) ) GLOBAL_UNIT_ASSIGNED_CONTEXT ( ( #84, #221, #185 ) ) REPRESENTATION_CONTEXT ( 'NONE', 'WORKASPACE' ) );
#254 = DIRECTION ( 'NONE',  ( -1.000000000000000000, -0.000000000000000000, -0.000000000000000000 ) ) ;
#255 = ORIENTED_EDGE ( 'NONE', *, *, #166, .T. ) ;
#256 = CARTESIAN_POINT ( 'NONE',  ( 2.700242099943472862, -0.6143227116428432444, -3.953656110527420608 ) ) ;
#257 = APPLICATION_CONTEXT ( 'automotive_design' ) ;
#258 = AXIS2_PLACEMENT_3D ( 'NONE', #204, #17, #20 ) ;
#259 = CARTESIAN_POINT ( 'NONE',  ( 4.003775730693104329, -0.8736513817240795232, -3.903764615555818551 ) ) ;
#260 = AXIS2_PLACEMENT_3D ( 'NONE', #172, #254, #66 ) ;
#261 = CARTESIAN_POINT ( 'NONE',  ( 24.00000000000000000, 0.000000000000000000, 6.000000000000001776 ) ) ;
#262 = DIRECTION ( 'NONE',  ( -0.000000000000000000, 0.000000000000000000, 1.000000000000000000 ) ) ;
#263 = CIRCLE ( 'NONE', #53, 6.000000000000001776 ) ;
#264 = AXIS2_PLACEMENT_3D ( 'NONE', #195, #232, #44 ) ;
#265 = APPLICATION_PROTOCOL_DEFINITION ( 'draft international standard', 'automotive_design', 1998, #272 ) ;
#266 = CARTESIAN_POINT ( 'NONE',  ( 2.626682660376375100, -0.5043798954878732088, 3.969924900770184895 ) ) ;
#267 = CARTESIAN_POINT ( 'NONE',  ( 2.526293510817843924, 0.2624981716213485305, 3.993212216743908805 ) ) ;
#268 = MECHANICAL_DESIGN_GEOMETRIC_PRESENTATION_REPRESENTATION (  '', ( #217 ), #253 ) ;
#269 = CARTESIAN_POINT ( 'NONE',  ( 4.499999999999999112, -2.710505431213761085E-17, 3.999999999999999112 ) ) ;
#270 = DIRECTION ( 'NONE',  ( -1.000000000000000000, -0.000000000000000000, -0.000000000000000000 ) ) ;
#271 = FACE_OUTER_BOUND ( 'NONE', #5, .T. ) ;
#272 = APPLICATION_CONTEXT ( 'automotive_design' ) ;
#273 = ORIENTED_EDGE ( 'NONE', *, *, #200, .T. ) ;
#274 = CONICAL_SURFACE ( 'NONE', #182, 3.999999999999998224, 0.7853981633974466137 ) ;
ENDSEC;
END-ISO-10303-21;
