ISO-10303-21;
HEADER;
FILE_DESCRIPTION (( 'STEP AP214' ),
    '1' );
FILE_NAME ('76.04.01.0001.step',
    '2021-04-02T17:59:36',
    ( '' ),
    ( '' ),
    'SwSTEP 2.0',
    'SolidWorks 2021',
    '' );
FILE_SCHEMA (( 'AUTOMOTIVE_DESIGN' ));
ENDSEC;

DATA;
#1 = PLANE ( 'NONE',  #92 ) ;
#2 = PRODUCT ( '76.04.01.0001', '76.04.01.0001', '', ( #77 ) ) ;
#3 = CARTESIAN_POINT ( 'NONE',  ( 13.00000000000000178, 0.000000000000000000, 2.500000000000001776 ) ) ;
#4 = CARTESIAN_POINT ( 'NONE',  ( 1.500055397243994726, 0.1310349001617353293, -1.999986150690163056 ) ) ;
#5 = CARTESIAN_POINT ( 'NONE',  ( 2.500000000000000000, 0.1326938576183071539, -1.999999999999998224 ) ) ;
#6 = CIRCLE ( 'NONE', #143, 1.200000000000001288 ) ;
#7 = SURFACE_STYLE_FILL_AREA ( #152 ) ;
#8 = DIRECTION ( 'NONE',  ( 0.000000000000000000, 0.000000000000000000, 1.000000000000000000 ) ) ;
#9 = ADVANCED_FACE ( 'NONE', ( #11 ), #204, .F. ) ;
#10 = CLOSED_SHELL ( 'NONE', ( #9, #197, #159, #30, #85, #40, #13, #142 ) ) ;
#11 = FACE_OUTER_BOUND ( 'NONE', #145, .T. ) ;
#12 = CARTESIAN_POINT ( 'NONE',  ( 2.500000000000000444, 0.000000000000000000, 1.999999999999999112 ) ) ;
#13 = ADVANCED_FACE ( 'NONE', ( #171 ), #1, .F. ) ;
#14 = CARTESIAN_POINT ( 'NONE',  ( 1.738335455097924864, 0.4455746387352811366, 1.951986750894311395 ) ) ;
#15 = AXIS2_PLACEMENT_3D ( 'NONE', #38, #200, #113 ) ;
#16 = EDGE_LOOP ( 'NONE', ( #109 ) ) ;
#17 = VERTEX_POINT ( 'NONE', #63 ) ;
#18 = DIRECTION ( 'NONE',  ( 0.000000000000000000, 0.000000000000000000, 1.000000000000000000 ) ) ;
#19 = CARTESIAN_POINT ( 'NONE',  ( 2.131676460514731364, -0.5000692722806541202, -1.936473787080419839 ) ) ;
#20 = VERTEX_POINT ( 'NONE', #118 ) ;
#21 = DIRECTION ( 'NONE',  ( 1.000000000000000000, 0.000000000000000000, 0.000000000000000000 ) ) ;
#22 = PRESENTATION_STYLE_ASSIGNMENT (( #229 ) ) ;
#23 = CARTESIAN_POINT ( 'NONE',  ( 1.554049581596341101, -0.2610235948501354319, -1.985108490053509200 ) ) ;
#24 = FACE_BOUND ( 'NONE', #192, .T. ) ;
#25 = ADVANCED_BREP_SHAPE_REPRESENTATION ( '76.04.01.0001', ( #157, #88 ), #180 ) ;
#26 = CARTESIAN_POINT ( 'NONE',  ( 0.7999999999999999334, 0.000000000000000000, 1.999999999999998668 ) ) ;
#27 = PRESENTATION_LAYER_ASSIGNMENT (  '', '', ( #141 ) ) ;
#28 = APPLICATION_PROTOCOL_DEFINITION ( 'draft international standard', 'automotive_design', 1998, #35 ) ;
#29 = MECHANICAL_DESIGN_GEOMETRIC_PRESENTATION_REPRESENTATION (  '', ( #191 ), #231 ) ;
#30 = ADVANCED_FACE ( 'NONE', ( #185, #202 ), #138, .F. ) ;
#31 = EDGE_LOOP ( 'NONE', ( #94 ) ) ;
#32 = EDGE_CURVE ( 'NONE', #17, #17, #166, .T. ) ;
#33 = DIRECTION ( 'NONE',  ( 0.000000000000000000, 0.000000000000000000, 1.000000000000000000 ) ) ;
#34 = CARTESIAN_POINT ( 'NONE',  ( 1.739127198863649193, -0.4462152240479071996, 1.951857673502185309 ) ) ;
#35 = APPLICATION_CONTEXT ( 'automotive_design' ) ;
#36 = EDGE_LOOP ( 'NONE', ( #50 ) ) ;
#37 = ORIENTED_EDGE ( 'NONE', *, *, #105, .F. ) ;
#38 = CARTESIAN_POINT ( 'NONE',  ( 13.00000000000000178, 0.000000000000000000, 0.000000000000000000 ) ) ;
#39 = CARTESIAN_POINT ( 'NONE',  ( 1.739127198863649193, 0.4462152240479071996, -1.951857673502185309 ) ) ;
#40 = ADVANCED_FACE ( 'NONE', ( #167, #119 ), #47, .T. ) ;
#41 = DIRECTION ( 'NONE',  ( -1.000000000000000000, -0.000000000000000000, -0.000000000000000000 ) ) ;
#42 = CARTESIAN_POINT ( 'NONE',  ( 1.499944692266457658, -0.1306117915533210050, -2.000013826932223182 ) ) ;
#43 = SURFACE_SIDE_STYLE ('',( #7 ) ) ;
#44 = CARTESIAN_POINT ( 'NONE',  ( 2.261622501280932784, 0.4454478222147742472, -1.951993862720122763 ) ) ;
#45 = CARTESIAN_POINT ( 'NONE',  ( 2.500000000000000000, 0.000000000000000000, 1.999999999999999112 ) ) ;
#46 = EDGE_LOOP ( 'NONE', ( #73 ) ) ;
#47 = CONICAL_SURFACE ( 'NONE', #209, 1.999999999999998668, 0.7853981633974468357 ) ;
#48 = CYLINDRICAL_SURFACE ( 'NONE', #64, 0.5000000000000000000 ) ;
#49 = PRESENTATION_STYLE_ASSIGNMENT (( #162 ) ) ;
#50 = ORIENTED_EDGE ( 'NONE', *, *, #130, .T. ) ;
#51 = CARTESIAN_POINT ( 'NONE',  ( 2.261476161884746094, 0.4455065951656356771, 1.951975199704166331 ) ) ;
#52 = EDGE_CURVE ( 'NONE', #101, #101, #135, .T. ) ;
#53 = EDGE_LOOP ( 'NONE', ( #216 ) ) ;
#54 = CARTESIAN_POINT ( 'NONE',  ( 1.869301693944821263, -0.5000825881446044896, 1.936470348940997344 ) ) ;
#55 = DIRECTION ( 'NONE',  ( 0.000000000000000000, 0.000000000000000000, 1.000000000000000000 ) ) ;
#56 = FILL_AREA_STYLE_COLOUR ( '', #228 ) ;
#57 = CARTESIAN_POINT ( 'NONE',  ( 1.869301693944821263, 0.5000825881446044896, -1.936470348940997344 ) ) ;
#58 = VERTEX_POINT ( 'NONE', #3 ) ;
#59 = DIRECTION ( 'NONE',  ( 1.000000000000000000, 0.000000000000000000, 0.000000000000000000 ) ) ;
#60 = CARTESIAN_POINT ( 'NONE',  ( 0.000000000000000000, 0.000000000000000000, 0.000000000000000000 ) ) ;
#61 = UNCERTAINTY_MEASURE_WITH_UNIT (LENGTH_MEASURE( 1.000000000000000082E-05 ), #132, 'distance_accuracy_value', 'NONE');
#62 = FACE_OUTER_BOUND ( 'NONE', #179, .T. ) ;
#63 = CARTESIAN_POINT ( 'NONE',  ( 2.500000000000000000, 0.000000000000000000, -1.999999999999999112 ) ) ;
#64 = AXIS2_PLACEMENT_3D ( 'NONE', #75, #95, #146 ) ;
#65 = PRODUCT_DEFINITION_FORMATION_WITH_SPECIFIED_SOURCE ( 'ANY', '', #2, .NOT_KNOWN. ) ;
#66 = AXIS2_PLACEMENT_3D ( 'NONE', #186, #206, #188 ) ;
#67 = CARTESIAN_POINT ( 'NONE',  ( 2.261622501280932784, -0.4454478222147742472, 1.951993862720122763 ) ) ;
#68 = ORIENTED_EDGE ( 'NONE', *, *, #120, .T. ) ;
#69 = AXIS2_PLACEMENT_3D ( 'NONE', #153, #114, #100 ) ;
#70 = CARTESIAN_POINT ( 'NONE',  ( 1.553837594113024467, -0.2609631240577789946, 1.985133409034135488 ) ) ;
#71 = EDGE_LOOP ( 'NONE', ( #126 ) ) ;
#72 = FACE_OUTER_BOUND ( 'NONE', #182, .T. ) ;
#73 = ORIENTED_EDGE ( 'NONE', *, *, #239, .F. ) ;
#74 = FACE_BOUND ( 'NONE', #147, .T. ) ;
#75 = CARTESIAN_POINT ( 'NONE',  ( 2.000000000000000000, 0.000000000000000000, -3.000000000000000888 ) ) ;
#76 = CARTESIAN_POINT ( 'NONE',  ( 1.738335455097924864, -0.4455746387352811366, -1.951986750894311395 ) ) ;
#77 = PRODUCT_CONTEXT ( 'NONE', #212, 'mechanical' ) ;
#78 = DIRECTION ( 'NONE',  ( -1.000000000000000000, 0.000000000000000000, -0.000000000000000000 ) ) ;
#79 =( NAMED_UNIT ( * ) PLANE_ANGLE_UNIT ( ) SI_UNIT ( $, .RADIAN. ) );
#80 = CARTESIAN_POINT ( 'NONE',  ( 2.445153297395840752, -0.2620771859351073707, -1.984943035759094254 ) ) ;
#81 = CARTESIAN_POINT ( 'NONE',  ( 1.079967007749232932E-16, 0.000000000000000000, 1.200000000000001288 ) ) ;
#82 = CIRCLE ( 'NONE', #124, 2.500000000000001776 ) ;
#83 = CARTESIAN_POINT ( 'NONE',  ( 2.500000000000000444, -0.1326938576183075424, -1.999999999999999556 ) ) ;
#84 = VERTEX_POINT ( 'NONE', #26 ) ;
#85 = ADVANCED_FACE ( 'NONE', ( #24, #156, #230, #62 ), #207, .T. ) ;
#86 = UNCERTAINTY_MEASURE_WITH_UNIT (LENGTH_MEASURE( 1.000000000000000082E-05 ), #99, 'distance_accuracy_value', 'NONE');
#87 = AXIS2_PLACEMENT_3D ( 'NONE', #110, #215, #240 ) ;
#88 = AXIS2_PLACEMENT_3D ( 'NONE', #60, #8, #137 ) ;
#89 = ORIENTED_EDGE ( 'NONE', *, *, #233, .F. ) ;
#90 = CARTESIAN_POINT ( 'NONE',  ( 1.079967007749232932E-16, 0.000000000000000000, 0.000000000000000000 ) ) ;
#91 = DIRECTION ( 'NONE',  ( 0.000000000000000000, 0.000000000000000000, 1.000000000000000000 ) ) ;
#92 = AXIS2_PLACEMENT_3D ( 'NONE', #102, #21, #134 ) ;
#93 = CARTESIAN_POINT ( 'NONE',  ( 1.867797984509063758, 0.4999305896153235507, 1.936509594785360999 ) ) ;
#94 = ORIENTED_EDGE ( 'NONE', *, *, #32, .F. ) ;
#95 = DIRECTION ( 'NONE',  ( -0.000000000000000000, -0.000000000000000000, 1.000000000000000000 ) ) ;
#96 = EDGE_LOOP ( 'NONE', ( #111 ) ) ;
#97 = DIRECTION ( 'NONE',  ( -1.000000000000000000, -0.000000000000000000, -0.000000000000000000 ) ) ;
#98 = DIRECTION ( 'NONE',  ( 0.000000000000000000, 0.000000000000000000, 1.000000000000000000 ) ) ;
#99 =( LENGTH_UNIT ( ) NAMED_UNIT ( * ) SI_UNIT ( .MILLI., .METRE. ) );
#100 = DIRECTION ( 'NONE',  ( 0.000000000000000000, 0.000000000000000000, -1.000000000000000000 ) ) ;
#101 = VERTEX_POINT ( 'NONE', #205 ) ;
#102 = CARTESIAN_POINT ( 'NONE',  ( 5.399835038746164662E-17, 1.200000000000001288, 0.000000000000000000 ) ) ;
#103 =( NAMED_UNIT ( * ) PLANE_ANGLE_UNIT ( ) SI_UNIT ( $, .RADIAN. ) );
#104 = CARTESIAN_POINT ( 'NONE',  ( 13.00000000000000000, 0.000000000000000000, 0.000000000000000000 ) ) ;
#105 = EDGE_CURVE ( 'NONE', #84, #84, #213, .T. ) ;
#106 = AXIS2_PLACEMENT_3D ( 'NONE', #131, #151, #98 ) ;
#107 = DIRECTION ( 'NONE',  ( -1.000000000000000000, -0.000000000000000000, -0.000000000000000000 ) ) ;
#108 = FACE_OUTER_BOUND ( 'NONE', #71, .T. ) ;
#109 = ORIENTED_EDGE ( 'NONE', *, *, #52, .F. ) ;
#110 = CARTESIAN_POINT ( 'NONE',  ( 0.000000000000000000, 0.000000000000000000, 0.000000000000000000 ) ) ;
#111 = ORIENTED_EDGE ( 'NONE', *, *, #52, .T. ) ;
#112 = CARTESIAN_POINT ( 'NONE',  ( 2.500000000000000444, 0.1326938576183075424, 1.999999999999999556 ) ) ;
#113 = DIRECTION ( 'NONE',  ( 0.000000000000000000, 0.000000000000000000, 1.000000000000000000 ) ) ;
#114 = DIRECTION ( 'NONE',  ( 1.000000000000000000, 0.000000000000000000, 0.000000000000000000 ) ) ;
#115 =( NAMED_UNIT ( * ) SI_UNIT ( $, .STERADIAN. ) SOLID_ANGLE_UNIT ( ) );
#116 = DIRECTION ( 'NONE',  ( -0.000000000000000000, 0.000000000000000000, 1.000000000000000000 ) ) ;
#117 = CARTESIAN_POINT ( 'NONE',  ( 0.7999999999999999334, 0.000000000000000000, 0.000000000000000000 ) ) ;
#118 = CARTESIAN_POINT ( 'NONE',  ( 12.49999999999999645, 0.000000000000000000, 3.000000000000000888 ) ) ;
#119 = FACE_OUTER_BOUND ( 'NONE', #234, .T. ) ;
#120 = EDGE_CURVE ( 'NONE', #58, #58, #82, .T. ) ;
#121 = APPLICATION_PROTOCOL_DEFINITION ( 'draft international standard', 'automotive_design', 1998, #212 ) ;
#122 = AXIS2_PLACEMENT_3D ( 'NONE', #177, #107, #33 ) ;
#123 = ORIENTED_EDGE ( 'NONE', *, *, #120, .F. ) ;
#124 = AXIS2_PLACEMENT_3D ( 'NONE', #133, #41, #235 ) ;
#125 = FACE_OUTER_BOUND ( 'NONE', #31, .T. ) ;
#126 = ORIENTED_EDGE ( 'NONE', *, *, #233, .T. ) ;
#127 = CARTESIAN_POINT ( 'NONE',  ( 2.500000000000000000, -0.1326938576183071539, 1.999999999999998224 ) ) ;
#128 = ORIENTED_EDGE ( 'NONE', *, *, #169, .T. ) ;
#129 =( NAMED_UNIT ( * ) SI_UNIT ( $, .STERADIAN. ) SOLID_ANGLE_UNIT ( ) );
#130 = EDGE_CURVE ( 'NONE', #225, #225, #6, .T. ) ;
#131 = CARTESIAN_POINT ( 'NONE',  ( 0.000000000000000000, 0.000000000000000000, 0.000000000000000000 ) ) ;
#132 =( LENGTH_UNIT ( ) NAMED_UNIT ( * ) SI_UNIT ( .MILLI., .METRE. ) );
#133 = CARTESIAN_POINT ( 'NONE',  ( 13.00000000000000178, 0.000000000000000000, 0.000000000000000000 ) ) ;
#134 = DIRECTION ( 'NONE',  ( 0.000000000000000000, 0.000000000000000000, -1.000000000000000000 ) ) ;
#135 = CIRCLE ( 'NONE', #66, 3.000000000000000444 ) ;
#136 = DIRECTION ( 'NONE',  ( 0.000000000000000000, 0.000000000000000000, -1.000000000000000000 ) ) ;
#137 = DIRECTION ( 'NONE',  ( 1.000000000000000000, 0.000000000000000000, 0.000000000000000000 ) ) ;
#138 = PLANE ( 'NONE',  #69 ) ;
#139 = VERTEX_POINT ( 'NONE', #155 ) ;
#140 = COLOUR_RGB ( '',0.8274509803921568096, 0.8392156862745098200, 0.8274509803921568096 ) ;
#141 = STYLED_ITEM ( 'NONE', ( #22 ), #25 ) ;
#142 = ADVANCED_FACE ( 'NONE', ( #125, #144 ), #48, .F. ) ;
#143 = AXIS2_PLACEMENT_3D ( 'NONE', #90, #150, #18 ) ;
#144 = FACE_OUTER_BOUND ( 'NONE', #46, .T. ) ;
#145 = EDGE_LOOP ( 'NONE', ( #123 ) ) ;
#146 = DIRECTION ( 'NONE',  ( 1.000000000000000000, 0.000000000000000000, 0.000000000000000000 ) ) ;
#147 = EDGE_LOOP ( 'NONE', ( #68 ) ) ;
#148 = AXIS2_PLACEMENT_3D ( 'NONE', #104, #78, #116 ) ;
#149 = MECHANICAL_DESIGN_GEOMETRIC_PRESENTATION_REPRESENTATION (  '', ( #141 ), #210 ) ;
#150 = DIRECTION ( 'NONE',  ( -1.000000000000000000, -0.000000000000000000, -0.000000000000000000 ) ) ;
#151 = DIRECTION ( 'NONE',  ( -1.000000000000000000, -0.000000000000000000, -0.000000000000000000 ) ) ;
#152 = FILL_AREA_STYLE ('',( #56 ) ) ;
#153 = CARTESIAN_POINT ( 'NONE',  ( 12.00000000000000000, 3.000000000000000444, 0.000000000000000000 ) ) ;
#154 = CARTESIAN_POINT ( 'NONE',  ( 2.500000000000000444, 0.000000000000000000, -1.999999999999999112 ) ) ;
#155 = CARTESIAN_POINT ( 'NONE',  ( 12.00000000000000000, 0.000000000000000000, 2.000000000000000000 ) ) ;
#156 = FACE_BOUND ( 'NONE', #53, .T. ) ;
#157 = MANIFOLD_SOLID_BREP ( 'Cut-Extrude1', #10 ) ;
#158 =( NAMED_UNIT ( * ) PLANE_ANGLE_UNIT ( ) SI_UNIT ( $, .RADIAN. ) );
#159 = ADVANCED_FACE ( 'NONE', ( #221, #108 ), #183, .T. ) ;
#160 = CARTESIAN_POINT ( 'NONE',  ( 2.131329443115315136, -0.4999172126883815737, 1.936513048691114847 ) ) ;
#161 = CARTESIAN_POINT ( 'NONE',  ( 2.131676460514731364, 0.5000692722806541202, 1.936473787080419839 ) ) ;
#162 = SURFACE_STYLE_USAGE ( .BOTH. , #214 ) ;
#163 = ORIENTED_EDGE ( 'NONE', *, *, #130, .F. ) ;
#164 = CARTESIAN_POINT ( 'NONE',  ( 1.500055397243994726, -0.1310349001617353293, 1.999986150690163056 ) ) ;
#165 = CARTESIAN_POINT ( 'NONE',  ( 2.131329443115315136, 0.4999172126883815737, -1.936513048691114847 ) ) ;
#166 = B_SPLINE_CURVE_WITH_KNOTS ( 'NONE', 3,
 ( #224, #5, #201, #44, #165, #57, #39, #170, #4, #42, #23, #76, #226, #19, #184, #80, #83, #154 ),
 .UNSPECIFIED., .T., .F.,
 ( 4, 2, 2, 2, 2, 2, 2, 2, 4 ),
 ( 0.000000000000000000, 0.0003923156643295052119, 0.0007846313286590104238, 0.001176946992988516395, 0.001569262657318022365, 0.001961578321647527903, 0.002353893985977034090, 0.002746209650306539844, 0.003138525314636046032 ),
 .UNSPECIFIED. ) ;
#167 = FACE_BOUND ( 'NONE', #190, .T. ) ;
#168 = VERTEX_POINT ( 'NONE', #45 ) ;
#169 = EDGE_CURVE ( 'NONE', #139, #139, #227, .T. ) ;
#170 = CARTESIAN_POINT ( 'NONE',  ( 1.553837594113024467, 0.2609631240577789946, -1.985133409034135488 ) ) ;
#171 = FACE_OUTER_BOUND ( 'NONE', #36, .T. ) ;
#172 = PRODUCT_DEFINITION_CONTEXT ( 'detailed design', #35, 'design' ) ;
#173 = PRODUCT_DEFINITION_SHAPE ( 'NONE', 'NONE',  #211 ) ;
#174 = AXIS2_PLACEMENT_3D ( 'NONE', #217, #97, #91 ) ;
#175 = CARTESIAN_POINT ( 'NONE',  ( 1.499944692266457658, 0.1306117915533210050, 2.000013826932223182 ) ) ;
#176 = ORIENTED_EDGE ( 'NONE', *, *, #239, .T. ) ;
#177 = CARTESIAN_POINT ( 'NONE',  ( 12.00000000000000000, 0.000000000000000000, 0.000000000000000000 ) ) ;
#178 = CARTESIAN_POINT ( 'NONE',  ( 1.554049581596341101, 0.2610235948501354319, 1.985108490053509200 ) ) ;
#179 = EDGE_LOOP ( 'NONE', ( #128 ) ) ;
#180 =( GEOMETRIC_REPRESENTATION_CONTEXT ( 3 ) GLOBAL_UNCERTAINTY_ASSIGNED_CONTEXT ( ( #86 ) ) GLOBAL_UNIT_ASSIGNED_CONTEXT ( ( #99, #79, #115 ) ) REPRESENTATION_CONTEXT ( 'NONE', 'WORKASPACE' ) );
#181 = CARTESIAN_POINT ( 'NONE',  ( 2.500000000000000444, 0.000000000000000000, 1.999999999999999112 ) ) ;
#182 = EDGE_LOOP ( 'NONE', ( #89 ) ) ;
#183 = CYLINDRICAL_SURFACE ( 'NONE', #87, 3.000000000000000888 ) ;
#184 = CARTESIAN_POINT ( 'NONE',  ( 2.261476161884746094, -0.4455065951656356771, -1.951975199704166331 ) ) ;
#185 = FACE_BOUND ( 'NONE', #195, .T. ) ;
#186 = CARTESIAN_POINT ( 'NONE',  ( 11.99999999999999822, 0.000000000000000000, 0.000000000000000000 ) ) ;
#187 = B_SPLINE_CURVE_WITH_KNOTS ( 'NONE', 3,
 ( #12, #127, #194, #67, #160, #54, #34, #70, #164, #175, #178, #14, #93, #161, #51, #196, #112, #181 ),
 .UNSPECIFIED., .T., .F.,
 ( 4, 2, 2, 2, 2, 2, 2, 2, 4 ),
 ( 0.000000000000000000, 0.0003923156643295052119, 0.0007846313286590104238, 0.001176946992988516395, 0.001569262657318022365, 0.001961578321647527903, 0.002353893985977034090, 0.002746209650306539844, 0.003138525314636046032 ),
 .UNSPECIFIED. ) ;
#188 = DIRECTION ( 'NONE',  ( 0.000000000000000000, 0.000000000000000000, 1.000000000000000000 ) ) ;
#189 =( LENGTH_UNIT ( ) NAMED_UNIT ( * ) SI_UNIT ( .MILLI., .METRE. ) );
#190 = EDGE_LOOP ( 'NONE', ( #163 ) ) ;
#191 = STYLED_ITEM ( 'NONE', ( #49 ), #157 ) ;
#192 = EDGE_LOOP ( 'NONE', ( #176 ) ) ;
#193 = SURFACE_STYLE_FILL_AREA ( #219 ) ;
#194 = CARTESIAN_POINT ( 'NONE',  ( 2.445343973449862762, -0.2617992375929784621, 1.984984876921897401 ) ) ;
#195 = EDGE_LOOP ( 'NONE', ( #198 ) ) ;
#196 = CARTESIAN_POINT ( 'NONE',  ( 2.445153297395840752, 0.2620771859351073707, 1.984943035759094254 ) ) ;
#197 = ADVANCED_FACE ( 'NONE', ( #72, #74 ), #236, .T. ) ;
#198 = ORIENTED_EDGE ( 'NONE', *, *, #169, .F. ) ;
#199 = PRESENTATION_LAYER_ASSIGNMENT (  '', '', ( #191 ) ) ;
#200 = DIRECTION ( 'NONE',  ( -1.000000000000000000, -0.000000000000000000, -0.000000000000000000 ) ) ;
#201 = CARTESIAN_POINT ( 'NONE',  ( 2.445343973449862762, 0.2617992375929784621, -1.984984876921897401 ) ) ;
#202 = FACE_OUTER_BOUND ( 'NONE', #96, .T. ) ;
#203 = SHAPE_DEFINITION_REPRESENTATION ( #173, #25 ) ;
#204 = PLANE ( 'NONE',  #148 ) ;
#205 = CARTESIAN_POINT ( 'NONE',  ( 11.99999999999999822, 0.000000000000000000, 3.000000000000000444 ) ) ;
#206 = DIRECTION ( 'NONE',  ( -1.000000000000000000, -0.000000000000000000, -0.000000000000000000 ) ) ;
#207 = CYLINDRICAL_SURFACE ( 'NONE', #106, 1.999999999999999112 ) ;
#208 = PRODUCT_RELATED_PRODUCT_CATEGORY ( 'part', '', ( #2 ) ) ;
#209 = AXIS2_PLACEMENT_3D ( 'NONE', #117, #59, #136 ) ;
#210 =( GEOMETRIC_REPRESENTATION_CONTEXT ( 3 ) GLOBAL_UNCERTAINTY_ASSIGNED_CONTEXT ( ( #238 ) ) GLOBAL_UNIT_ASSIGNED_CONTEXT ( ( #189, #103, #223 ) ) REPRESENTATION_CONTEXT ( 'NONE', 'WORKASPACE' ) );
#211 = PRODUCT_DEFINITION ( 'UNKNOWN', '', #65, #172 ) ;
#212 = APPLICATION_CONTEXT ( 'automotive_design' ) ;
#213 = CIRCLE ( 'NONE', #242, 1.999999999999998668 ) ;
#214 = SURFACE_SIDE_STYLE ('',( #193 ) ) ;
#215 = DIRECTION ( 'NONE',  ( -1.000000000000000000, -0.000000000000000000, -0.000000000000000000 ) ) ;
#216 = ORIENTED_EDGE ( 'NONE', *, *, #32, .T. ) ;
#217 = CARTESIAN_POINT ( 'NONE',  ( 12.49999999999999645, 0.000000000000000000, 0.000000000000000000 ) ) ;
#218 = ORIENTED_EDGE ( 'NONE', *, *, #105, .T. ) ;
#219 = FILL_AREA_STYLE ('',( #237 ) ) ;
#220 = EDGE_LOOP ( 'NONE', ( #37 ) ) ;
#221 = FACE_OUTER_BOUND ( 'NONE', #16, .T. ) ;
#222 = DIRECTION ( 'NONE',  ( -1.000000000000000000, -0.000000000000000000, -0.000000000000000000 ) ) ;
#223 =( NAMED_UNIT ( * ) SI_UNIT ( $, .STERADIAN. ) SOLID_ANGLE_UNIT ( ) );
#224 = CARTESIAN_POINT ( 'NONE',  ( 2.500000000000000444, 0.000000000000000000, -1.999999999999999112 ) ) ;
#225 = VERTEX_POINT ( 'NONE', #81 ) ;
#226 = CARTESIAN_POINT ( 'NONE',  ( 1.867797984509063758, -0.4999305896153235507, -1.936509594785360999 ) ) ;
#227 = CIRCLE ( 'NONE', #122, 2.000000000000000000 ) ;
#228 = COLOUR_RGB ( '',0.8274509803921568096, 0.8392156862745098200, 0.8274509803921568096 ) ;
#229 = SURFACE_STYLE_USAGE ( .BOTH. , #43 ) ;
#230 = FACE_OUTER_BOUND ( 'NONE', #220, .T. ) ;
#231 =( GEOMETRIC_REPRESENTATION_CONTEXT ( 3 ) GLOBAL_UNCERTAINTY_ASSIGNED_CONTEXT ( ( #61 ) ) GLOBAL_UNIT_ASSIGNED_CONTEXT ( ( #132, #158, #129 ) ) REPRESENTATION_CONTEXT ( 'NONE', 'WORKASPACE' ) );
#232 = CIRCLE ( 'NONE', #174, 3.000000000000000888 ) ;
#233 = EDGE_CURVE ( 'NONE', #20, #20, #232, .T. ) ;
#234 = EDGE_LOOP ( 'NONE', ( #218 ) ) ;
#235 = DIRECTION ( 'NONE',  ( 0.000000000000000000, 0.000000000000000000, 1.000000000000000000 ) ) ;
#236 = CONICAL_SURFACE ( 'NONE', #15, 2.500000000000001776, 0.7853981633974435050 ) ;
#237 = FILL_AREA_STYLE_COLOUR ( '', #140 ) ;
#238 = UNCERTAINTY_MEASURE_WITH_UNIT (LENGTH_MEASURE( 1.000000000000000082E-05 ), #189, 'distance_accuracy_value', 'NONE');
#239 = EDGE_CURVE ( 'NONE', #168, #168, #187, .T. ) ;
#240 = DIRECTION ( 'NONE',  ( 0.000000000000000000, 0.000000000000000000, 1.000000000000000000 ) ) ;
#241 = CARTESIAN_POINT ( 'NONE',  ( 0.7999999999999999334, 0.000000000000000000, 0.000000000000000000 ) ) ;
#242 = AXIS2_PLACEMENT_3D ( 'NONE', #241, #222, #55 ) ;
ENDSEC;
END-ISO-10303-21;
