ISO-10303-21;
HEADER;
FILE_DESCRIPTION (( 'STEP AP214' ),
    '1' );
FILE_NAME ('75.99.10.0001L.step',
    '2021-04-02T17:57:52',
    ( '' ),
    ( '' ),
    'SwSTEP 2.0',
    'SolidWorks 2021',
    '' );
FILE_SCHEMA (( 'AUTOMOTIVE_DESIGN' ));
ENDSEC;

DATA;
#1 = AXIS2_PLACEMENT_3D ( 'NONE', #298, #9, #263 ) ;
#2 = ORIENTED_EDGE ( 'NONE', *, *, #107, .F. ) ;
#3 = CIRCLE ( 'NONE', #204, 3.000000000000000000 ) ;
#4 = ORIENTED_EDGE ( 'NONE', *, *, #130, .T. ) ;
#5 = PRESENTATION_LAYER_ASSIGNMENT (  '', '', ( #256 ) ) ;
#6 = CARTESIAN_POINT ( 'NONE',  ( 1.158594806476174488E-16, -13.50000000000000178, 0.000000000000000000 ) ) ;
#7 = ORIENTED_EDGE ( 'NONE', *, *, #72, .F. ) ;
#8 = EDGE_LOOP ( 'NONE', ( #170 ) ) ;
#9 = DIRECTION ( 'NONE',  ( -0.000000000000000000, 0.000000000000000000, -1.000000000000000000 ) ) ;
#10 = EDGE_CURVE ( 'NONE', #122, #122, #168, .T. ) ;
#11 = CARTESIAN_POINT ( 'NONE',  ( 0.8000000000000003775, 0.000000000000000000, 0.000000000000000000 ) ) ;
#12 =( LENGTH_UNIT ( ) NAMED_UNIT ( * ) SI_UNIT ( .MILLI., .METRE. ) );
#13 = TOROIDAL_SURFACE ( 'NONE', #27, 5.344155686354952195, 0.5000000000000013323 ) ;
#14 = CYLINDRICAL_SURFACE ( 'NONE', #249, 5.000000000000006217 ) ;
#15 = AXIS2_PLACEMENT_3D ( 'NONE', #205, #294, #239 ) ;
#16 = SURFACE_SIDE_STYLE ('',( #267 ) ) ;
#17 = FACE_OUTER_BOUND ( 'NONE', #79, .T. ) ;
#18 = FACE_OUTER_BOUND ( 'NONE', #86, .T. ) ;
#19 = DIRECTION ( 'NONE',  ( 0.000000000000000000, 0.000000000000000000, -1.000000000000000000 ) ) ;
#20 = FACE_OUTER_BOUND ( 'NONE', #28, .T. ) ;
#21 = CYLINDRICAL_SURFACE ( 'NONE', #80, 5.344155686354953971 ) ;
#22 = FACE_BOUND ( 'NONE', #230, .T. ) ;
#23 = AXIS2_PLACEMENT_3D ( 'NONE', #58, #262, #39 ) ;
#24 = ADVANCED_BREP_SHAPE_REPRESENTATION ( '75.99.10.0001L', ( #105, #342, #308 ), #325 ) ;
#25 = DIRECTION ( 'NONE',  ( -1.007473744761890886E-17, -1.000000000000000000, -0.000000000000000000 ) ) ;
#26 =( NAMED_UNIT ( * ) SI_UNIT ( $, .STERADIAN. ) SOLID_ANGLE_UNIT ( ) );
#27 = AXIS2_PLACEMENT_3D ( 'NONE', #115, #225, #173 ) ;
#28 = EDGE_LOOP ( 'NONE', ( #53 ) ) ;
#29 = CIRCLE ( 'NONE', #94, 5.455272678794339747 ) ;
#30 = EDGE_LOOP ( 'NONE', ( #56, #252 ) ) ;
#31 = ADVANCED_FACE ( 'NONE', ( ), #13, .T. ) ;
#32 = ORIENTED_EDGE ( 'NONE', *, *, #54, .T. ) ;
#33 = CARTESIAN_POINT ( 'NONE',  ( -5.000000000000000000, 0.000000000000000000, 0.000000000000000000 ) ) ;
#34 = DIRECTION ( 'NONE',  ( -1.000000000000000000, -2.409338161078899180E-16, -0.000000000000000000 ) ) ;
#35 = EDGE_LOOP ( 'NONE', ( #201 ) ) ;
#36 = DIRECTION ( 'NONE',  ( -1.000000000000000000, -2.409338161078899180E-16, 0.000000000000000000 ) ) ;
#37 = PLANE ( 'NONE',  #301 ) ;
#38 = VERTEX_POINT ( 'NONE', #344 ) ;
#39 = DIRECTION ( 'NONE',  ( 0.000000000000000000, 0.000000000000000000, 1.000000000000000000 ) ) ;
#40 = CARTESIAN_POINT ( 'NONE',  ( 4.900000000000005684, 0.000000000000000000, 0.000000000000000000 ) ) ;
#41 = CARTESIAN_POINT ( 'NONE',  ( 1.800000000000000488, 0.000000000000000000, 5.844155686354953083 ) ) ;
#42 = CARTESIAN_POINT ( 'NONE',  ( 8.059789958095008760E-18, -24.20000000000001350, 0.000000000000000000 ) ) ;
#43 = PLANE ( 'NONE',  #90 ) ;
#44 = VERTEX_POINT ( 'NONE', #314 ) ;
#45 =( NAMED_UNIT ( * ) SI_UNIT ( $, .STERADIAN. ) SOLID_ANGLE_UNIT ( ) );
#46 = DIRECTION ( 'NONE',  ( 0.000000000000000000, 0.000000000000000000, 1.000000000000000000 ) ) ;
#47 = APPLICATION_PROTOCOL_DEFINITION ( 'draft international standard', 'automotive_design', 1998, #167 ) ;
#48 = DIRECTION ( 'NONE',  ( 1.000000000000000000, -0.000000000000000000, -0.000000000000000000 ) ) ;
#49 = DIRECTION ( 'NONE',  ( 0.000000000000000000, 0.000000000000000000, 1.000000000000000000 ) ) ;
#50 = AXIS2_PLACEMENT_3D ( 'NONE', #40, #48, #46 ) ;
#51 = EDGE_CURVE ( 'NONE', #317, #317, #258, .T. ) ;
#52 = EDGE_LOOP ( 'NONE', ( #335 ) ) ;
#53 = ORIENTED_EDGE ( 'NONE', *, *, #72, .T. ) ;
#54 = EDGE_CURVE ( 'NONE', #287, #287, #311, .T. ) ;
#55 = CIRCLE ( 'NONE', #193, 4.898979485566356651 ) ;
#56 = ORIENTED_EDGE ( 'NONE', *, *, #176, .F. ) ;
#57 = DIRECTION ( 'NONE',  ( 1.000000000000000000, 2.409338161078899180E-16, 0.000000000000000000 ) ) ;
#58 = CARTESIAN_POINT ( 'NONE',  ( 0.8000000000000003775, 0.000000000000000000, 0.000000000000000000 ) ) ;
#59 = VERTEX_POINT ( 'NONE', #41 ) ;
#60 = PRODUCT_DEFINITION ( 'UNKNOWN', '', #148, #189 ) ;
#61 = ORIENTED_EDGE ( 'NONE', *, *, #10, .T. ) ;
#62 = COLOUR_RGB ( '',0.8274509803921568096, 0.8392156862745098200, 0.8274509803921568096 ) ;
#63 = FACE_OUTER_BOUND ( 'NONE', #139, .T. ) ;
#64 = FACE_OUTER_BOUND ( 'NONE', #217, .T. ) ;
#65 = DIRECTION ( 'NONE',  ( 2.449293598294706907E-16, -1.000000000000000000, -0.000000000000000000 ) ) ;
#66 = COLOUR_RGB ( '',0.8274509803921568096, 0.8392156862745098200, 0.8274509803921568096 ) ;
#67 = FACE_OUTER_BOUND ( 'NONE', #85, .T. ) ;
#68 = CARTESIAN_POINT ( 'NONE',  ( 5.000000000000004441, -5.444155686354950063, 0.000000000000000000 ) ) ;
#69 = FACE_OUTER_BOUND ( 'NONE', #35, .T. ) ;
#70 = FACE_BOUND ( 'NONE', #316, .T. ) ;
#71 = CARTESIAN_POINT ( 'NONE',  ( 5.000000000000003553, -25.00000000000000000, 0.000000000000000000 ) ) ;
#72 = EDGE_CURVE ( 'NONE', #290, #290, #243, .T. ) ;
#73 = DIRECTION ( 'NONE',  ( 1.000000000000000000, 1.734723475976804876E-16, 0.000000000000000000 ) ) ;
#74 = FACE_OUTER_BOUND ( 'NONE', #341, .T. ) ;
#75 = FILL_AREA_STYLE ('',( #216 ) ) ;
#76 = AXIS2_PLACEMENT_3D ( 'NONE', #244, #25, #210 ) ;
#77 = FACE_BOUND ( 'NONE', #340, .T. ) ;
#78 = CLOSED_SHELL ( 'NONE', ( #357, #165, #295, #127, #327, #82, #315, #214, #254, #144, #274, #98, #248, #322, #227 ) ) ;
#79 = EDGE_LOOP ( 'NONE', ( #91 ) ) ;
#80 = AXIS2_PLACEMENT_3D ( 'NONE', #95, #238, #152 ) ;
#81 =( GEOMETRIC_REPRESENTATION_CONTEXT ( 3 ) GLOBAL_UNCERTAINTY_ASSIGNED_CONTEXT ( ( #221 ) ) GLOBAL_UNIT_ASSIGNED_CONTEXT ( ( #187, #293, #45 ) ) REPRESENTATION_CONTEXT ( 'NONE', 'WORKASPACE' ) );
#82 = ADVANCED_FACE ( 'NONE', ( #123, #63 ), #21, .F. ) ;
#83 = ORIENTED_EDGE ( 'NONE', *, *, #259, .T. ) ;
#84 = CIRCLE ( 'NONE', #76, 3.799999999999998934 ) ;
#85 = EDGE_LOOP ( 'NONE', ( #312 ) ) ;
#86 = EDGE_LOOP ( 'NONE', ( #7 ) ) ;
#87 = CIRCLE ( 'NONE', #50, 5.344155686354953971 ) ;
#88 = EDGE_LOOP ( 'NONE', ( #231 ) ) ;
#89 = CARTESIAN_POINT ( 'NONE',  ( 0.8000000000000003775, 0.000000000000000000, 5.844155686354953083 ) ) ;
#90 = AXIS2_PLACEMENT_3D ( 'NONE', #179, #109, #241 ) ;
#91 = ORIENTED_EDGE ( 'NONE', *, *, #303, .T. ) ;
#92 = VERTEX_POINT ( 'NONE', #202 ) ;
#93 = FACE_BOUND ( 'NONE', #284, .T. ) ;
#94 = AXIS2_PLACEMENT_3D ( 'NONE', #253, #57, #226 ) ;
#95 = CARTESIAN_POINT ( 'NONE',  ( -5.000000000000000000, 0.000000000000000000, 0.000000000000000000 ) ) ;
#96 = CARTESIAN_POINT ( 'NONE',  ( 1.800000000000000488, 0.000000000000000000, 0.000000000000000000 ) ) ;
#97 = CARTESIAN_POINT ( 'NONE',  ( 4.900000000000005684, 0.000000000000000000, 5.344155686354953971 ) ) ;
#98 = ADVANCED_FACE ( 'NONE', ( #345, #352 ), #197, .F. ) ;
#99 = DIRECTION ( 'NONE',  ( 2.409338161078899180E-16, -1.000000000000000000, 0.000000000000000000 ) ) ;
#100 = DIRECTION ( 'NONE',  ( 1.000000000000000000, 2.449293598294706907E-16, 0.000000000000000000 ) ) ;
#101 = SURFACE_STYLE_USAGE ( .BOTH. , #206 ) ;
#102 = DIRECTION ( 'NONE',  ( 1.000000000000000000, 0.000000000000000000, 0.000000000000000000 ) ) ;
#103 = FACE_OUTER_BOUND ( 'NONE', #313, .T. ) ;
#104 =( NAMED_UNIT ( * ) PLANE_ANGLE_UNIT ( ) SI_UNIT ( $, .RADIAN. ) );
#105 = MANIFOLD_SOLID_BREP ( 'Revolve3', #281 ) ;
#106 = AXIS2_PLACEMENT_3D ( 'NONE', #121, #36, #99 ) ;
#107 = EDGE_CURVE ( 'NONE', #125, #125, #219, .T. ) ;
#108 = DIRECTION ( 'NONE',  ( 1.000000000000000000, -0.000000000000000000, -0.000000000000000000 ) ) ;
#109 = DIRECTION ( 'NONE',  ( -1.000000000000000000, 0.000000000000000000, -0.000000000000000000 ) ) ;
#110 = VERTEX_POINT ( 'NONE', #299 ) ;
#111 = SHAPE_DEFINITION_REPRESENTATION ( #280, #24 ) ;
#112 = CIRCLE ( 'NONE', #126, 5.344155686354953971 ) ;
#113 = PRESENTATION_LAYER_ASSIGNMENT (  '', '', ( #120 ) ) ;
#114 = ORIENTED_EDGE ( 'NONE', *, *, #176, .T. ) ;
#115 = CARTESIAN_POINT ( 'NONE',  ( 1.300000000000000933, 0.000000000000000000, 0.000000000000000000 ) ) ;
#116 = EDGE_LOOP ( 'NONE', ( #195 ) ) ;
#117 = EDGE_LOOP ( 'NONE', ( #255 ) ) ;
#118 = ORIENTED_EDGE ( 'NONE', *, *, #10, .F. ) ;
#119 = PRESENTATION_STYLE_ASSIGNMENT (( #101 ) ) ;
#120 = STYLED_ITEM ( 'NONE', ( #119 ), #342 ) ;
#121 = CARTESIAN_POINT ( 'NONE',  ( 5.000000000000008882, -25.00000000000000000, -7.400000000000000355 ) ) ;
#122 = VERTEX_POINT ( 'NONE', #68 ) ;
#123 = FACE_OUTER_BOUND ( 'NONE', #310, .T. ) ;
#124 = CARTESIAN_POINT ( 'NONE',  ( -0.9999999999999997780, 5.344155686354953971, 0.000000000000000000 ) ) ;
#125 = VERTEX_POINT ( 'NONE', #89 ) ;
#126 = AXIS2_PLACEMENT_3D ( 'NONE', #348, #209, #326 ) ;
#127 = ADVANCED_FACE ( 'NONE', ( #93, #203 ), #291, .F. ) ;
#128 = DIRECTION ( 'NONE',  ( 1.000000000000000000, 0.000000000000000000, 0.000000000000000000 ) ) ;
#129 =( NAMED_UNIT ( * ) SI_UNIT ( $, .STERADIAN. ) SOLID_ANGLE_UNIT ( ) );
#130 = EDGE_CURVE ( 'NONE', #200, #200, #112, .T. ) ;
#131 = CARTESIAN_POINT ( 'NONE',  ( -5.000000000000000000, 0.000000000000000000, 0.000000000000000000 ) ) ;
#132 = DIRECTION ( 'NONE',  ( 0.000000000000000000, -0.000000000000000000, 1.000000000000000000 ) ) ;
#133 =( LENGTH_UNIT ( ) NAMED_UNIT ( * ) SI_UNIT ( .MILLI., .METRE. ) );
#134 = DIRECTION ( 'NONE',  ( 1.000000000000000000, 0.000000000000000000, 0.000000000000000000 ) ) ;
#135 = DIRECTION ( 'NONE',  ( -1.007473744761890886E-17, -1.000000000000000000, -0.000000000000000000 ) ) ;
#136 = CONICAL_SURFACE ( 'NONE', #175, 3.799999999999998934, 0.7853981633974549403 ) ;
#137 = FACE_OUTER_BOUND ( 'NONE', #196, .T. ) ;
#138 = AXIS2_PLACEMENT_3D ( 'NONE', #188, #132, #100 ) ;
#139 = EDGE_LOOP ( 'NONE', ( #4 ) ) ;
#140 = CARTESIAN_POINT ( 'NONE',  ( 5.000000000000002665, 0.000000000000000000, 0.000000000000000000 ) ) ;
#141 = ORIENTED_EDGE ( 'NONE', *, *, #303, .F. ) ;
#142 = EDGE_LOOP ( 'NONE', ( #114 ) ) ;
#143 = VERTEX_POINT ( 'NONE', #97 ) ;
#144 = ADVANCED_FACE ( 'NONE', ( #233, #69 ), #183, .F. ) ;
#145 = ORIENTED_EDGE ( 'NONE', *, *, #159, .T. ) ;
#146 = APPLICATION_CONTEXT ( 'automotive_design' ) ;
#147 = UNCERTAINTY_MEASURE_WITH_UNIT (LENGTH_MEASURE( 1.000000000000000082E-05 ), #12, 'distance_accuracy_value', 'NONE');
#148 = PRODUCT_DEFINITION_FORMATION_WITH_SPECIFIED_SOURCE ( 'ANY', '', #215, .NOT_KNOWN. ) ;
#149 = DIRECTION ( 'NONE',  ( -1.000000000000000000, -0.000000000000000000, -0.000000000000000000 ) ) ;
#150 = FACE_OUTER_BOUND ( 'NONE', #8, .T. ) ;
#151 =( NAMED_UNIT ( * ) PLANE_ANGLE_UNIT ( ) SI_UNIT ( $, .RADIAN. ) );
#152 = DIRECTION ( 'NONE',  ( 0.000000000000000000, 0.000000000000000000, 1.000000000000000000 ) ) ;
#153 = CARTESIAN_POINT ( 'NONE',  ( 1.158594806476174488E-16, -13.50000000000000178, 0.000000000000000000 ) ) ;
#154 = CIRCLE ( 'NONE', #235, 5.844155686354953083 ) ;
#155 = DIRECTION ( 'NONE',  ( -1.007473744761890886E-17, -1.000000000000000000, -0.000000000000000000 ) ) ;
#156 = CARTESIAN_POINT ( 'NONE',  ( 3.799999999999998934, -25.00000000000000000, 0.000000000000000000 ) ) ;
#157 =( GEOMETRIC_REPRESENTATION_CONTEXT ( 3 ) GLOBAL_UNCERTAINTY_ASSIGNED_CONTEXT ( ( #302 ) ) GLOBAL_UNIT_ASSIGNED_CONTEXT ( ( #133, #270, #237 ) ) REPRESENTATION_CONTEXT ( 'NONE', 'WORKASPACE' ) );
#158 = CARTESIAN_POINT ( 'NONE',  ( 2.449293598294707302E-15, -25.00000000000000000, 0.000000000000000000 ) ) ;
#159 = EDGE_CURVE ( 'NONE', #44, #44, #3, .T. ) ;
#160 = CARTESIAN_POINT ( 'NONE',  ( -1.000000000000000000, 0.000000000000000000, 0.000000000000000000 ) ) ;
#161 = FILL_AREA_STYLE_COLOUR ( '', #66 ) ;
#162 = DIRECTION ( 'NONE',  ( 0.000000000000000000, 0.000000000000000000, 1.000000000000000000 ) ) ;
#163 = STYLED_ITEM ( 'NONE', ( #319 ), #105 ) ;
#164 = DIRECTION ( 'NONE',  ( 1.000000000000000000, 0.000000000000000000, 0.000000000000000000 ) ) ;
#165 = ADVANCED_FACE ( 'NONE', ( #271, #18 ), #14, .T. ) ;
#166 = AXIS2_PLACEMENT_3D ( 'NONE', #213, #266, #331 ) ;
#167 = APPLICATION_CONTEXT ( 'automotive_design' ) ;
#168 = CIRCLE ( 'NONE', #282, 5.444155686354950063 ) ;
#169 = AXIS2_PLACEMENT_3D ( 'NONE', #153, #269, #353 ) ;
#170 = ORIENTED_EDGE ( 'NONE', *, *, #246, .F. ) ;
#171 = DIRECTION ( 'NONE',  ( -1.007473744761890886E-17, -1.000000000000000000, -0.000000000000000000 ) ) ;
#172 = CYLINDRICAL_SURFACE ( 'NONE', #268, 5.844155686354953083 ) ;
#173 = DIRECTION ( 'NONE',  ( 1.224646799147353207E-16, -1.000000000000000000, 0.000000000000000000 ) ) ;
#174 = ORIENTED_EDGE ( 'NONE', *, *, #220, .T. ) ;
#175 = AXIS2_PLACEMENT_3D ( 'NONE', #279, #135, #208 ) ;
#176 = EDGE_CURVE ( 'NONE', #110, #110, #346, .T. ) ;
#177 = CARTESIAN_POINT ( 'NONE',  ( 0.8000000000000003775, 0.000000000000000000, 5.344155686354953971 ) ) ;
#178 = DIRECTION ( 'NONE',  ( -1.000000000000000000, -0.000000000000000000, -0.000000000000000000 ) ) ;
#179 = CARTESIAN_POINT ( 'NONE',  ( 1.800000000000000266, 5.844155686354953083, 0.000000000000000000 ) ) ;
#180 = CARTESIAN_POINT ( 'NONE',  ( 2.999999999999998224, -13.50000000000000178, 0.000000000000000000 ) ) ;
#181 = SPHERICAL_SURFACE ( 'NONE', #138, 7.400000000000000355 ) ;
#182 = CARTESIAN_POINT ( 'NONE',  ( 1.800000000000000488, 0.000000000000000000, 5.344155686354953971 ) ) ;
#183 = CYLINDRICAL_SURFACE ( 'NONE', #318, 5.344155686354953971 ) ;
#184 = DIRECTION ( 'NONE',  ( -1.000000000000000000, -0.000000000000000000, -0.000000000000000000 ) ) ;
#185 = CARTESIAN_POINT ( 'NONE',  ( 0.000000000000000000, 0.000000000000000000, 0.000000000000000000 ) ) ;
#186 =( GEOMETRIC_REPRESENTATION_CONTEXT ( 3 ) GLOBAL_UNCERTAINTY_ASSIGNED_CONTEXT ( ( #257 ) ) GLOBAL_UNIT_ASSIGNED_CONTEXT ( ( #245, #104, #26 ) ) REPRESENTATION_CONTEXT ( 'NONE', 'WORKASPACE' ) );
#187 =( LENGTH_UNIT ( ) NAMED_UNIT ( * ) SI_UNIT ( .MILLI., .METRE. ) );
#188 = CARTESIAN_POINT ( 'NONE',  ( 0.000000000000000000, 0.000000000000000000, 0.000000000000000000 ) ) ;
#189 = PRODUCT_DEFINITION_CONTEXT ( 'detailed design', #167, 'design' ) ;
#190 = EDGE_LOOP ( 'NONE', ( #337 ) ) ;
#191 = MECHANICAL_DESIGN_GEOMETRIC_PRESENTATION_REPRESENTATION (  '', ( #163 ), #81 ) ;
#192 = EDGE_CURVE ( 'NONE', #110, #110, #29, .T. ) ;
#193 = AXIS2_PLACEMENT_3D ( 'NONE', #160, #236, #162 ) ;
#194 = PRODUCT_RELATED_PRODUCT_CATEGORY ( 'part', '', ( #215 ) ) ;
#195 = ORIENTED_EDGE ( 'NONE', *, *, #107, .T. ) ;
#196 = EDGE_LOOP ( 'NONE', ( #2 ) ) ;
#197 = CONICAL_SURFACE ( 'NONE', #358, 5.444155686354950952, 0.7853981633974439491 ) ;
#198 = EDGE_LOOP ( 'NONE', ( #260 ) ) ;
#199 = ORIENTED_EDGE ( 'NONE', *, *, #51, .T. ) ;
#200 = VERTEX_POINT ( 'NONE', #182 ) ;
#201 = ORIENTED_EDGE ( 'NONE', *, *, #54, .F. ) ;
#202 = CARTESIAN_POINT ( 'NONE',  ( -1.000000000000000000, 0.000000000000000000, 5.344155686354953971 ) ) ;
#203 = FACE_OUTER_BOUND ( 'NONE', #198, .T. ) ;
#204 = AXIS2_PLACEMENT_3D ( 'NONE', #42, #155, #134 ) ;
#205 = CARTESIAN_POINT ( 'NONE',  ( -1.000000000000000000, 0.000000000000000000, 0.000000000000000000 ) ) ;
#206 = SURFACE_SIDE_STYLE ('',( #264 ) ) ;
#207 = CARTESIAN_POINT ( 'NONE',  ( 5.000000000000003553, 0.000000000000000000, 0.000000000000000000 ) ) ;
#208 = DIRECTION ( 'NONE',  ( 1.000000000000000000, 0.000000000000000000, 0.000000000000000000 ) ) ;
#209 = DIRECTION ( 'NONE',  ( -1.000000000000000000, -0.000000000000000000, -0.000000000000000000 ) ) ;
#210 = DIRECTION ( 'NONE',  ( 1.000000000000000000, 0.000000000000000000, 0.000000000000000000 ) ) ;
#211 = SURFACE_STYLE_USAGE ( .BOTH. , #16 ) ;
#212 = AXIS2_PLACEMENT_3D ( 'NONE', #6, #171, #228 ) ;
#213 = CARTESIAN_POINT ( 'NONE',  ( 0.000000000000000000, -25.00000000000000000, 0.000000000000000000 ) ) ;
#214 = ADVANCED_FACE ( 'NONE', ( #339, #229 ), #172, .F. ) ;
#215 = PRODUCT ( '75.99.10.0001L', '75.99.10.0001L', '', ( #354 ) ) ;
#216 = FILL_AREA_STYLE_COLOUR ( '', #62 ) ;
#217 = EDGE_LOOP ( 'NONE', ( #174 ) ) ;
#218 = SURFACE_SIDE_STYLE ('',( #359 ) ) ;
#219 = CIRCLE ( 'NONE', #261, 5.844155686354953083 ) ;
#220 = EDGE_CURVE ( 'NONE', #59, #59, #154, .T. ) ;
#221 = UNCERTAINTY_MEASURE_WITH_UNIT (LENGTH_MEASURE( 1.000000000000000082E-05 ), #187, 'distance_accuracy_value', 'NONE');
#222 = EDGE_CURVE ( 'NONE', #143, #143, #87, .T. ) ;
#223 = CIRCLE ( 'NONE', #15, 5.344155686354953971 ) ;
#224 = EDGE_LOOP ( 'NONE', ( #141 ) ) ;
#225 = DIRECTION ( 'NONE',  ( -1.000000000000000000, -1.224646799147353207E-16, -0.000000000000000000 ) ) ;
#226 = DIRECTION ( 'NONE',  ( 3.179902413897659103E-16, -1.000000000000000000, 0.000000000000000000 ) ) ;
#227 = ADVANCED_FACE ( 'NONE', ( #74 ), #351, .F. ) ;
#228 = DIRECTION ( 'NONE',  ( 1.000000000000000000, 0.000000000000000000, 0.000000000000000000 ) ) ;
#229 = FACE_OUTER_BOUND ( 'NONE', #88, .T. ) ;
#230 = EDGE_LOOP ( 'NONE', ( #32 ) ) ;
#231 = ORIENTED_EDGE ( 'NONE', *, *, #220, .F. ) ;
#232 = FILL_AREA_STYLE ('',( #343 ) ) ;
#233 = FACE_OUTER_BOUND ( 'NONE', #286, .T. ) ;
#234 = VERTEX_POINT ( 'NONE', #156 ) ;
#235 = AXIS2_PLACEMENT_3D ( 'NONE', #96, #184, #300 ) ;
#236 = DIRECTION ( 'NONE',  ( -1.000000000000000000, -0.000000000000000000, -0.000000000000000000 ) ) ;
#237 =( NAMED_UNIT ( * ) SI_UNIT ( $, .STERADIAN. ) SOLID_ANGLE_UNIT ( ) );
#238 = DIRECTION ( 'NONE',  ( -1.000000000000000000, -0.000000000000000000, -0.000000000000000000 ) ) ;
#239 = DIRECTION ( 'NONE',  ( 0.000000000000000000, 0.000000000000000000, 1.000000000000000000 ) ) ;
#240 = CARTESIAN_POINT ( 'NONE',  ( -2.337783952529761330E-15, -5.455272678794340635, 0.000000000000000000 ) ) ;
#241 = DIRECTION ( 'NONE',  ( -0.000000000000000000, 0.000000000000000000, 1.000000000000000000 ) ) ;
#242 = DIRECTION ( 'NONE',  ( 1.000000000000000000, 0.000000000000000000, 0.000000000000000000 ) ) ;
#243 = CIRCLE ( 'NONE', #307, 5.000000000000000888 ) ;
#244 = CARTESIAN_POINT ( 'NONE',  ( 3.857012716261279827E-34, -25.00000000000000000, 0.000000000000000000 ) ) ;
#245 =( LENGTH_UNIT ( ) NAMED_UNIT ( * ) SI_UNIT ( .MILLI., .METRE. ) );
#246 = EDGE_CURVE ( 'NONE', #38, #38, #55, .T. ) ;
#247 = DIRECTION ( 'NONE',  ( 0.000000000000000000, 0.000000000000000000, -1.000000000000000000 ) ) ;
#248 = ADVANCED_FACE ( 'NONE', ( #70, #17 ), #136, .F. ) ;
#249 = AXIS2_PLACEMENT_3D ( 'NONE', #158, #275, #102 ) ;
#250 = COLOUR_RGB ( '',0.8274509803921568096, 0.8392156862745098200, 0.8274509803921568096 ) ;
#251 = AXIS2_PLACEMENT_3D ( 'NONE', #240, #347, #73 ) ;
#252 = ORIENTED_EDGE ( 'NONE', *, *, #192, .F. ) ;
#253 = CARTESIAN_POINT ( 'NONE',  ( 5.000000000000002665, 1.204669080539450379E-15, 0.000000000000000000 ) ) ;
#254 = ADVANCED_FACE ( 'NONE', ( #22, #137 ), #355, .T. ) ;
#255 = ORIENTED_EDGE ( 'NONE', *, *, #222, .F. ) ;
#256 = STYLED_ITEM ( 'NONE', ( #277 ), #24 ) ;
#257 = UNCERTAINTY_MEASURE_WITH_UNIT (LENGTH_MEASURE( 1.000000000000000082E-05 ), #245, 'distance_accuracy_value', 'NONE');
#258 = CIRCLE ( 'NONE', #212, 2.999999999999998224 ) ;
#259 = EDGE_CURVE ( 'NONE', #92, #92, #223, .T. ) ;
#260 = ORIENTED_EDGE ( 'NONE', *, *, #192, .T. ) ;
#261 = AXIS2_PLACEMENT_3D ( 'NONE', #11, #178, #296 ) ;
#262 = DIRECTION ( 'NONE',  ( -1.000000000000000000, -0.000000000000000000, -0.000000000000000000 ) ) ;
#263 = DIRECTION ( 'NONE',  ( 0.000000000000000000, 1.000000000000000000, 0.000000000000000000 ) ) ;
#264 = SURFACE_STYLE_FILL_AREA ( #232 ) ;
#265 = DIRECTION ( 'NONE',  ( 0.000000000000000000, 0.000000000000000000, 1.000000000000000000 ) ) ;
#266 = DIRECTION ( 'NONE',  ( -1.007473744761890886E-17, -1.000000000000000000, -0.000000000000000000 ) ) ;
#267 = SURFACE_STYLE_FILL_AREA ( #75 ) ;
#268 = AXIS2_PLACEMENT_3D ( 'NONE', #33, #276, #333 ) ;
#269 = DIRECTION ( 'NONE',  ( -1.007473744761890886E-17, -1.000000000000000000, -0.000000000000000000 ) ) ;
#270 =( NAMED_UNIT ( * ) PLANE_ANGLE_UNIT ( ) SI_UNIT ( $, .RADIAN. ) );
#271 = FACE_OUTER_BOUND ( 'NONE', #142, .T. ) ;
#272 = CARTESIAN_POINT ( 'NONE',  ( 0.8000000000000001554, 5.344155686354953971, 0.000000000000000000 ) ) ;
#273 = CARTESIAN_POINT ( 'NONE',  ( 2.449293598294707302E-15, -25.00000000000000000, 0.000000000000000000 ) ) ;
#274 = ADVANCED_FACE ( 'NONE', ( #77, #67 ), #37, .T. ) ;
#275 = DIRECTION ( 'NONE',  ( 2.449293598294706907E-16, -1.000000000000000000, -0.000000000000000000 ) ) ;
#276 = DIRECTION ( 'NONE',  ( -1.000000000000000000, -0.000000000000000000, -0.000000000000000000 ) ) ;
#277 = PRESENTATION_STYLE_ASSIGNMENT (( #304 ) ) ;
#278 = PRESENTATION_LAYER_ASSIGNMENT (  '', '', ( #163 ) ) ;
#279 = CARTESIAN_POINT ( 'NONE',  ( 3.857012716261279827E-34, -25.00000000000000000, 0.000000000000000000 ) ) ;
#280 = PRODUCT_DEFINITION_SHAPE ( 'NONE', 'NONE',  #60 ) ;
#281 = CLOSED_SHELL ( 'NONE', ( #31 ) ) ;
#282 = AXIS2_PLACEMENT_3D ( 'NONE', #140, #34, #309 ) ;
#283 = ORIENTED_EDGE ( 'NONE', *, *, #246, .T. ) ;
#284 = EDGE_LOOP ( 'NONE', ( #61 ) ) ;
#285 = ORIENTED_EDGE ( 'NONE', *, *, #222, .T. ) ;
#286 = EDGE_LOOP ( 'NONE', ( #83 ) ) ;
#287 = VERTEX_POINT ( 'NONE', #177 ) ;
#288 = AXIS2_PLACEMENT_3D ( 'NONE', #272, #128, #19 ) ;
#289 = EDGE_LOOP ( 'NONE', ( #118 ) ) ;
#290 = VERTEX_POINT ( 'NONE', #71 ) ;
#291 = PLANE ( 'NONE',  #106 ) ;
#292 = CYLINDRICAL_SURFACE ( 'NONE', #166, 2.999999999999999112 ) ;
#293 =( NAMED_UNIT ( * ) PLANE_ANGLE_UNIT ( ) SI_UNIT ( $, .RADIAN. ) );
#294 = DIRECTION ( 'NONE',  ( -1.000000000000000000, -0.000000000000000000, -0.000000000000000000 ) ) ;
#295 = ADVANCED_FACE ( 'NONE', ( #320 ), #181, .T. ) ;
#296 = DIRECTION ( 'NONE',  ( 0.000000000000000000, 0.000000000000000000, 1.000000000000000000 ) ) ;
#297 = DIRECTION ( 'NONE',  ( 1.000000000000000000, 0.000000000000000000, 0.000000000000000000 ) ) ;
#298 = CARTESIAN_POINT ( 'NONE',  ( 0.000000000000000000, 0.000000000000000000, 0.000000000000000000 ) ) ;
#299 = CARTESIAN_POINT ( 'NONE',  ( 5.000000000000004441, -5.455272678794338859, 0.000000000000000000 ) ) ;
#300 = DIRECTION ( 'NONE',  ( 0.000000000000000000, 0.000000000000000000, 1.000000000000000000 ) ) ;
#301 = AXIS2_PLACEMENT_3D ( 'NONE', #124, #297, #247 ) ;
#302 = UNCERTAINTY_MEASURE_WITH_UNIT (LENGTH_MEASURE( 1.000000000000000082E-05 ), #133, 'distance_accuracy_value', 'NONE');
#303 = EDGE_CURVE ( 'NONE', #234, #234, #84, .T. ) ;
#304 = SURFACE_STYLE_USAGE ( .BOTH. , #218 ) ;
#305 = APPLICATION_PROTOCOL_DEFINITION ( 'draft international standard', 'automotive_design', 1998, #146 ) ;
#306 = AXIS2_PLACEMENT_3D ( 'NONE', #273, #65, #324 ) ;
#307 = AXIS2_PLACEMENT_3D ( 'NONE', #332, #330, #242 ) ;
#308 = AXIS2_PLACEMENT_3D ( 'NONE', #185, #49, #164 ) ;
#309 = DIRECTION ( 'NONE',  ( 3.186395790121616158E-16, -1.000000000000000000, 0.000000000000000000 ) ) ;
#310 = EDGE_LOOP ( 'NONE', ( #285 ) ) ;
#311 = CIRCLE ( 'NONE', #23, 5.344155686354953971 ) ;
#312 = ORIENTED_EDGE ( 'NONE', *, *, #259, .F. ) ;
#313 = EDGE_LOOP ( 'NONE', ( #145 ) ) ;
#314 = CARTESIAN_POINT ( 'NONE',  ( 3.000000000000000000, -24.20000000000001350, 0.000000000000000000 ) ) ;
#315 = ADVANCED_FACE ( 'NONE', ( #64, #328 ), #43, .T. ) ;
#316 = EDGE_LOOP ( 'NONE', ( #338 ) ) ;
#317 = VERTEX_POINT ( 'NONE', #180 ) ;
#318 = AXIS2_PLACEMENT_3D ( 'NONE', #131, #149, #265 ) ;
#319 = PRESENTATION_STYLE_ASSIGNMENT (( #211 ) ) ;
#320 = FACE_OUTER_BOUND ( 'NONE', #30, .T. ) ;
#321 = PLANE ( 'NONE',  #306 ) ;
#322 = ADVANCED_FACE ( 'NONE', ( #350, #103 ), #292, .F. ) ;
#323 = SPHERICAL_SURFACE ( 'NONE', #1, 5.000000000000000000 ) ;
#324 = DIRECTION ( 'NONE',  ( 1.000000000000000000, 2.449293598294706907E-16, 0.000000000000000000 ) ) ;
#325 =( GEOMETRIC_REPRESENTATION_CONTEXT ( 3 ) GLOBAL_UNCERTAINTY_ASSIGNED_CONTEXT ( ( #147 ) ) GLOBAL_UNIT_ASSIGNED_CONTEXT ( ( #12, #151, #129 ) ) REPRESENTATION_CONTEXT ( 'NONE', 'WORKASPACE' ) );
#326 = DIRECTION ( 'NONE',  ( 0.000000000000000000, 0.000000000000000000, 1.000000000000000000 ) ) ;
#327 = ADVANCED_FACE ( 'NONE', ( #150 ), #323, .F. ) ;
#328 = FACE_BOUND ( 'NONE', #52, .T. ) ;
#329 = FACE_BOUND ( 'NONE', #224, .T. ) ;
#330 = DIRECTION ( 'NONE',  ( 2.449293598294706907E-16, -1.000000000000000000, -0.000000000000000000 ) ) ;
#331 = DIRECTION ( 'NONE',  ( 1.000000000000000000, 0.000000000000000000, 0.000000000000000000 ) ) ;
#332 = CARTESIAN_POINT ( 'NONE',  ( 2.449293598294707696E-15, -25.00000000000000000, 0.000000000000000000 ) ) ;
#333 = DIRECTION ( 'NONE',  ( 0.000000000000000000, 0.000000000000000000, 1.000000000000000000 ) ) ;
#334 = MECHANICAL_DESIGN_GEOMETRIC_PRESENTATION_REPRESENTATION (  '', ( #120 ), #157 ) ;
#335 = ORIENTED_EDGE ( 'NONE', *, *, #130, .F. ) ;
#336 = FILL_AREA_STYLE ('',( #161 ) ) ;
#337 = ORIENTED_EDGE ( 'NONE', *, *, #51, .F. ) ;
#338 = ORIENTED_EDGE ( 'NONE', *, *, #159, .F. ) ;
#339 = FACE_OUTER_BOUND ( 'NONE', #116, .T. ) ;
#340 = EDGE_LOOP ( 'NONE', ( #283 ) ) ;
#341 = EDGE_LOOP ( 'NONE', ( #199 ) ) ;
#342 = MANIFOLD_SOLID_BREP ( 'Cut-Revolve2', #78 ) ;
#343 = FILL_AREA_STYLE_COLOUR ( '', #250 ) ;
#344 = CARTESIAN_POINT ( 'NONE',  ( -1.000000000000000000, 0.000000000000000000, 4.898979485566356651 ) ) ;
#345 = FACE_BOUND ( 'NONE', #117, .T. ) ;
#346 = CIRCLE ( 'NONE', #251, 5.000000000000006217 ) ;
#347 = DIRECTION ( 'NONE',  ( 2.449293598294706907E-16, -1.000000000000000000, -0.000000000000000000 ) ) ;
#348 = CARTESIAN_POINT ( 'NONE',  ( 1.800000000000000488, 0.000000000000000000, 0.000000000000000000 ) ) ;
#349 = DIRECTION ( 'NONE',  ( 0.000000000000000000, 0.000000000000000000, -1.000000000000000000 ) ) ;
#350 = FACE_OUTER_BOUND ( 'NONE', #190, .T. ) ;
#351 = CONICAL_SURFACE ( 'NONE', #169, 2.999999999999998224, 1.047197551196599852 ) ;
#352 = FACE_OUTER_BOUND ( 'NONE', #289, .T. ) ;
#353 = DIRECTION ( 'NONE',  ( 1.000000000000000000, 0.000000000000000000, 0.000000000000000000 ) ) ;
#354 = PRODUCT_CONTEXT ( 'NONE', #146, 'mechanical' ) ;
#355 = PLANE ( 'NONE',  #288 ) ;
#356 = MECHANICAL_DESIGN_GEOMETRIC_PRESENTATION_REPRESENTATION (  '', ( #256 ), #186 ) ;
#357 = ADVANCED_FACE ( 'NONE', ( #329, #20 ), #321, .T. ) ;
#358 = AXIS2_PLACEMENT_3D ( 'NONE', #207, #108, #349 ) ;
#359 = SURFACE_STYLE_FILL_AREA ( #336 ) ;
ENDSEC;
END-ISO-10303-21;
